Nirvana - Smells like teen spirit SOLO

von benny_r, 10.01.08.

  1. benny_r

    benny_r Registrierter Benutzer

    Im Board seit:
    25.12.07
    Zuletzt hier:
    30.04.08
    Beiträge:
    62
    Ort:
    berlin
    Zustimmungen:
    0
    Kekse:
    10
    Erstellt: 10.01.08   #1
    Hallo,

    ich versuche das smells like teen spirit solo nach den Tabs zu spielen :

    Solo:

    e--------------------------------------------------------------------------]
    h--------------------------------------------------------------------------]
    g-------8----10-------8--8b--6--5---6-5------------------------------------]
    D--10-------------6-----------------------8--6--8--8b--6--5----------------]
    A--------------------------------------------------------------------------]
    E--------------------------------------------------------------------------]


    e-----------------------------------------------]
    h-----------------------------------------------]
    g-----------------------------------------------]
    D---6---5---6---5---6---5---6>5--5>3------------]
    A-----------------------------------------------]
    E-----------------------------------------------]



    Aber irgentwie wenn ich es nachspiele klingt es nicht so wie in manchen Guitar Lessons etc. Sind die Tabs falsch oder bin ich einfach zu unfähig?^^



    Gruß
     
  2. mrkurdtmcbain

    mrkurdtmcbain Registrierter Benutzer

    Im Board seit:
    11.06.06
    Beiträge:
    521
    Zustimmungen:
    0
    Kekse:
    330
    Erstellt: 10.01.08   #2
    also ich kenn das Solo nur unter diesen "Noten"...
    also der Tab ist mal nicht falsch?

    Gitarre gestimmt?
     
  3. Dude

    Dude Registrierter Benutzer

    Im Board seit:
    17.06.07
    Zuletzt hier:
    5.07.12
    Beiträge:
    144
    Zustimmungen:
    0
    Kekse:
    58
    Erstellt: 10.01.08   #3
    Also ich hab mir selber so ne Freestyle Version von dem Solo gemacht;)

    Warte ich Tab die mal eben ;)
     
  4. Lynx

    Lynx Registrierter Benutzer

    Im Board seit:
    18.02.04
    Zuletzt hier:
    8.03.12
    Beiträge:
    413
    Zustimmungen:
    2
    Kekse:
    22
    Erstellt: 10.01.08   #4
    Werden nicht viele Nirvana Songs mit einer Gitarre gespielt, die um einen Halbton runtergestimmt ist ? Vielleicht liegts ja daran.
     
  5. Bran

    Bran Registrierter Benutzer

    Im Board seit:
    30.12.04
    Zuletzt hier:
    8.12.16
    Beiträge:
    2.262
    Zustimmungen:
    572
    Kekse:
    8.327
    Erstellt: 10.01.08   #5
    Das sind auch nur die Tabs vom Solo

    Das ganze Lied findest du hier
     
  6. benny_r

    benny_r Threadersteller Registrierter Benutzer

    Im Board seit:
    25.12.07
    Zuletzt hier:
    30.04.08
    Beiträge:
    62
    Ort:
    berlin
    Zustimmungen:
    0
    Kekse:
    10
    Erstellt: 10.01.08   #6
    Ich weiß das es das Solo ist^^ Genau das möchte ich ja spielen..
     
  7. Dude

    Dude Registrierter Benutzer

    Im Board seit:
    17.06.07
    Zuletzt hier:
    5.07.12
    Beiträge:
    144
    Zustimmungen:
    0
    Kekse:
    58
    Erstellt: 10.01.08   #7
    e-----------------------------------------------]
    h-------6------6-------------------------------]
    g--5-8------8----8-6-5-6-5-------5----------] 2x
    D---------6------------------8-6-8---8-6-5---]
    A-----------------------------------------------]
    E-----------------------------------------------]


    e-----------------------------------------------]
    h-----------------------------------------------]
    g-----------------------------------------------]
    D---6---5---6---5---6---5---6--5--------------]
    A-----------------------------------6---8-------]
    E-----------------------------------------------]

    er wollte auch nur das Solo haben!
     
  8. tafkag

    tafkag Registrierter Benutzer

    Im Board seit:
    18.02.05
    Zuletzt hier:
    29.11.16
    Beiträge:
    81
    Zustimmungen:
    12
    Kekse:
    10
    Erstellt: 10.01.08   #8
    Die Tabs stimmen und runtergestimmt ist bei SLTS auch nichts. Muss also an Dir liegen. :D
    Vielleicht kannst Du mal was aufnehmen, damit man hören kann, woran es liegen könnte.
     
  9. benny_r

    benny_r Threadersteller Registrierter Benutzer

    Im Board seit:
    25.12.07
    Zuletzt hier:
    30.04.08
    Beiträge:
    62
    Ort:
    berlin
    Zustimmungen:
    0
    Kekse:
    10
    Erstellt: 10.01.08   #9
    Aufnehmen kann ich es erst ab nächste woche wenn mein verstärker hier ist. ich melde mich dann^^
    Warum sind die Tabs von Flaexx so völlig unterschiedlich?
     
  10. AWESOM-O

    AWESOM-O Registrierter Benutzer

    Im Board seit:
    10.06.07
    Zuletzt hier:
    4.12.16
    Beiträge:
    2.639
    Zustimmungen:
    254
    Kekse:
    8.654
    Erstellt: 10.01.08   #10
    ich hab auch ne version es zu spielen^^ (eigentlich is ja nur der anfang anders, aber ich finde mit dem benidg tönts geiler und ist auch einfacher zu spielen...):

    PHP:
    e--------------------------------------------------------------------------]
    h--------------------------------------------------------------------------]
    g--5-8----10b-------8--8b--6--5---6-5------------------------------------]    2x
    D
    ------------------6-----------------------8--6--8--8b--6--5----------------]
    A--------------------------------------------------------------------------]
    E--------------------------------------------------------------------------]


    e-----------------------------------------------]
    h-----------------------------------------------]
    g-----------------------------------------------]
    D---6---5---6---5---6---5---6>5--5>3------------]
    A-----------------------------------------------]
    E-----------------------------------------------]
     
  11. benny_r

    benny_r Threadersteller Registrierter Benutzer

    Im Board seit:
    25.12.07
    Zuletzt hier:
    30.04.08
    Beiträge:
    62
    Ort:
    berlin
    Zustimmungen:
    0
    Kekse:
    10
    Erstellt: 10.01.08   #11
    Also wie ich da so sehe gibt es also viele versionen des solos?^^
     
  12. tafkag

    tafkag Registrierter Benutzer

    Im Board seit:
    18.02.05
    Zuletzt hier:
    29.11.16
    Beiträge:
    81
    Zustimmungen:
    12
    Kekse:
    10
    Erstellt: 10.01.08   #12
    Das von Dir gepostete ist das Nirvana-Original. Die anderen sind Eigenkreationen.
     
  13. AWESOM-O

    AWESOM-O Registrierter Benutzer

    Im Board seit:
    10.06.07
    Zuletzt hier:
    4.12.16
    Beiträge:
    2.639
    Zustimmungen:
    254
    Kekse:
    8.654
    Erstellt: 10.01.08   #13
    ^^ eigentlich nicht, von den tönen is es das selbe, nur auf ner anderen saite^^

    aber das ist 100% korrekt, wenn da was schief klingt ist die gitarre verstimmt (oder ich hab n fehler geschrieben)
     
  14. Bran

    Bran Registrierter Benutzer

    Im Board seit:
    30.12.04
    Zuletzt hier:
    8.12.16
    Beiträge:
    2.262
    Zustimmungen:
    572
    Kekse:
    8.327
    Erstellt: 10.01.08   #14
    oh sry :p der letzte post war wohl in geistiger umnachtung geschrieben.

    aber ich habs eben ausprobiert und mit ner klampfe auf standard tuning passt das so....
    zumindestens bei mir :p










    gruß
     
  15. metz

    metz Registrierter Benutzer

    Im Board seit:
    08.10.05
    Zuletzt hier:
    16.12.14
    Beiträge:
    664
    Zustimmungen:
    2
    Kekse:
    989
    Erstellt: 11.01.08   #15
    Ich würde mal behaupten, so ist es noch richtiger. Sind zwar die gleichen Töne klingt aber durch die Verschiebung gerinfügig anderst.


    [​IMG]
     
  16. Dude

    Dude Registrierter Benutzer

    Im Board seit:
    17.06.07
    Zuletzt hier:
    5.07.12
    Beiträge:
    144
    Zustimmungen:
    0
    Kekse:
    58
    Erstellt: 11.01.08   #16
    Wer lesen kann ist klar im Vorteil -.-

    Ich hab mir nie die Tabs zu SlTs angesehen, und mir das achso schwere Lied selber beigebracht. Und ich kann das Solo so am besten spielen ;)
     
Die Seite wird geladen...

mapping