Ist das Blues-Rock oder was ist es?..

von onkel-stefan, 16.06.08.

  1. onkel-stefan

    onkel-stefan Registrierter Benutzer

    Im Board seit:
    17.12.04
    Zuletzt hier:
    3.05.14
    Beiträge:
    91
    Zustimmungen:
    0
    Kekse:
    10
    Erstellt: 16.06.08   #1
    Hab bei Youtube ein Video entdeckt, da spielt einer in den ersten 55 Sekunden eine, wie ich finde, sehr coole Interpretation von Johnny B Goode.

    http://www.youtube.com/watch?v=4Hl4ueIk0zQ&feature=related

    Als was für einen Musikstil kann man dass bezeichnen und welche Bands/Gitarristen spielen so in der Art?
    Hätt gerne Lust mehr in die Richtung zu lernen, weiß aber nicht, von wem und was ich mir das abschauen könnte.
    Habt ihr Tips? Wär cool, Gruß Stefan
     
  2. Ralf86

    Ralf86 Registrierter Benutzer

    Im Board seit:
    02.05.06
    Zuletzt hier:
    26.02.14
    Beiträge:
    49
    Zustimmungen:
    0
    Kekse:
    41
    Erstellt: 16.06.08   #2
    Steht doch dran: Rock 'n' Roll / Blues Style.
    Bei Youtube gibts auch einige Videos von Bands und lessons dazu.
     
  3. bluesriot

    bluesriot Gesperrter Benutzer

    Im Board seit:
    24.10.07
    Zuletzt hier:
    28.09.09
    Beiträge:
    374
    Ort:
    Utopia
    Zustimmungen:
    0
    Kekse:
    423
    Erstellt: 16.06.08   #3
    :eek::eek::eek:du spielst gitarre und kennst chuck berry nicht:confused:
    vllt. solltest du dich mal mit rock-history befassen
     
  4. onkel-stefan

    onkel-stefan Threadersteller Registrierter Benutzer

    Im Board seit:
    17.12.04
    Zuletzt hier:
    3.05.14
    Beiträge:
    91
    Zustimmungen:
    0
    Kekse:
    10
    Erstellt: 17.06.08   #4
    Klar kenn ich Chuck Berry und auch das Original Johnny B Goode.
    Aber die normalen Chuck Berry Sachen sind technisch nicht so anspruchsvoll finde ich und doch ehr einfach gehalten.
    Genau so finde ich nichts passendes im klassischen Rock n Roll oder Blues Genre.. Bill Haley oder Elvis sind nich das was ich suche und zb BB King in Richtung Blues ist mir zu langsam..
    Das was der Typ in dem Video spielt find ich richtig gut, aber naja wenn ihr da keine Tips zu habt muss ich wohl weitersuchen.
    Danke trotzdem, Gruß
     
  5. strato1990

    strato1990 Registrierter Benutzer

    Im Board seit:
    27.12.07
    Zuletzt hier:
    21.09.08
    Beiträge:
    119
    Zustimmungen:
    0
    Kekse:
    204
    Erstellt: 17.06.08   #5
    Ich nehme mir mal das Recht und stelle ein eigentlich stimmendes Tab rein.
    Es ist aber nicht von mir,jedoch wurde es zur freien Verfügung bereit gestellt,daher wird es wohl kein problem sein.
    Code:
    ----------/5-5-5--/5-5-5--/5-5-5
    ----5-7--/5-5-5--/5-5-5--/5-5-5
    -/6--------------------------------
    -----------------------------------
    -----------------------------------
    -----------------------------------
    
    Code:
    -----------------------------------------
    -8-7-5----------------------------------
    --------5-h6----------------------------
    ---------------7-5--7-7-7--7-7-7--7-7
    ---------------------7-7-7--7-7-7--7-7
    -----------------------------------------
    
    Code:
    -----------------------------
    -----5-7-5------------------
    --/6--------/4--------------
    ----------------7-4---------
    -----------------------------
    -----------------------------
    
     
  6. strato1990

    strato1990 Registrierter Benutzer

    Im Board seit:
    27.12.07
    Zuletzt hier:
    21.09.08
    Beiträge:
    119
    Zustimmungen:
    0
    Kekse:
    204
    Erstellt: 17.06.08   #6
    Code:
    2x
    -----------------------------------
    ----5-----5-------5-----5-----5--
    -7b----7b-----7b----7b---7b----
    ----------------------------------
    -----------------------------------
    -----------------------------------
    
    Code:
    -----5------------7-5-----------------------
    ----------8-7-5-------8-7-5----------------
    -7b---------------------------7-------------
    ---------------------------------------------
    ---------------------------------------------
    ---------------------------------------------
    
    Code:
    ----------5---------------------------------
    ---------x----8-7-5-----5----5------------
    --5b----x------------7b---7b---7-5-h6---
    --------x---------------------------------7-
    ---------------------------------------------
    ---------------------------------------------
    
    Code:
    
    Chorus
    
    ------------------
    ---/8-8-8-8--10-
    ---/9-9-9-9-- 9-
    ------------------
    ------------------
    ------------------