John Frusciante lesson von under the bridge

von Nachwuchs Gonzo, 04.06.08.

  1. Nachwuchs Gonzo

    Nachwuchs Gonzo Registrierter Benutzer

    Im Board seit:
    19.08.03
    Zuletzt hier:
    8.06.08
    Beiträge:
    45
    Zustimmungen:
    0
    Kekse:
    10
    Erstellt: 04.06.08   #1
    Nabend Leute, auf youtube gibt es eine Under the bridge lesson, wo John Frusciante persönlich under the bridge vorspielt. Ich habe was er spielt schon mit Tabs verglichen, das meiste was ich habe differiert aber. Gibt es irgendwo ein Guitar Pro oder Power Tab wo das was er spielt vorkommt?
    Danke schon einmal.
     
  2. MasterRFlatcher

    MasterRFlatcher Registrierter Benutzer

    Im Board seit:
    15.02.06
    Zuletzt hier:
    22.02.14
    Beiträge:
    102
    Zustimmungen:
    0
    Kekse:
    69
    Erstellt: 04.06.08   #2
    Er spielt es doch super langsam. Da kannstes dir doch anschauen und aufschreiben was er spielt. Außerdem schult es dazu noch dein Gehör ;)
     
  3. Nachwuchs Gonzo

    Nachwuchs Gonzo Threadersteller Registrierter Benutzer

    Im Board seit:
    19.08.03
    Zuletzt hier:
    8.06.08
    Beiträge:
    45
    Zustimmungen:
    0
    Kekse:
    10
    Erstellt: 05.06.08   #3
    Das hab ich gewusst das die Antwort kommt :D Naja hast ja recht. Aber eine Frage hätte ich trotzdem. Im ersten Part spielt er ja diese kurzen slides die er als Akkord greift. Beim ersten slide müsste der Akkord ein cis Akkord sein, sehe ich das richtig? Der zweite slide müsste auch ein cis Akkord sein, der nur anders gegriffen wird. Sehe ich das beides richtig?
     
  4. Cornholio

    Cornholio Registrierter Benutzer

    Im Board seit:
    06.12.04
    Zuletzt hier:
    2.10.16
    Beiträge:
    2.423
    Zustimmungen:
    1
    Kekse:
    3.182
    Erstellt: 05.06.08   #4
    Hab dir mal das Intro getabt. (D= Daumen, Z=Zeigefinger der Spielhand)

    was in der Lesson da 2x slidet ist
    -2s4
    -3s5
    -2s4
    -
    -
    -
    auf dem Album spielt er 2x stattdessen
    -
    -
    -
    -4s6
    -5s7
    -
    Also den anderen Teil vom Cis Akkord :o
    In der Lesson dämpft er einfach die Saiten, wenn er die Finger da hinlegt.
     

    Anhänge:

  5. MasterRFlatcher

    MasterRFlatcher Registrierter Benutzer

    Im Board seit:
    15.02.06
    Zuletzt hier:
    22.02.14
    Beiträge:
    102
    Zustimmungen:
    0
    Kekse:
    69
    Erstellt: 05.06.08   #5
    ich würds ungefähr so spielen:

    e|----------------------------------------------4--5---5h7p5-----------------|
    B|------------------------------------------9---4--5-----------5--------------|
    G|--------9--------------8h9p8-----------9---4--6---------------------------|
    D|--------9----------------------9--9s11------6--7--------------------------|
    A|-7s11-----11s7----9-------------9s11------6--7--------------------------|
    E|------------------7---------------------------4--5---------------------------|
     
  6. Nachwuchs Gonzo

    Nachwuchs Gonzo Threadersteller Registrierter Benutzer

    Im Board seit:
    19.08.03
    Zuletzt hier:
    8.06.08
    Beiträge:
    45
    Zustimmungen:
    0
    Kekse:
    10
    Erstellt: 05.06.08   #6
    Nee, also beim ersten part den er auf youtube spielt wird alles noch in den ersten bünden gespielt. ich lade mir gerade das video runter. ich werde mal versuchen es heraus zu hören.
     
  7. MasterRFlatcher

    MasterRFlatcher Registrierter Benutzer

    Im Board seit:
    15.02.06
    Zuletzt hier:
    22.02.14
    Beiträge:
    102
    Zustimmungen:
    0
    Kekse:
    69
    Erstellt: 05.06.08   #7
    ach du meinst das intro! sry hab ich mich verlesen.

    du meinst im intro der slide

    1.mal

    e|---------------------------------------------------------------|
    B|-------------------3-------3s5--------------------------------|
    G|-------------2-------2-----------------------------------------|
    D|-------4--------4----------4s6--------------------------------|
    A|--4h5----5----------------------------------------------------|
    E|----------------------------------------------------------------|

    beim 2. mal


    e|---------------------------2s4--------------------------------|
    B|-------------------3-------------------------------------------|
    G|-------------2-------2----2s4--------------------------------|
    D|-------4--------4---------------------------------------------|
    A|--4h5----5----------------------------------------------------|
    E|----------------------------------------------------------------|
     
  8. Cornholio

    Cornholio Registrierter Benutzer

    Im Board seit:
    06.12.04
    Zuletzt hier:
    2.10.16
    Beiträge:
    2.423
    Zustimmungen:
    1
    Kekse:
    3.182
    Erstellt: 05.06.08   #8
    Ok, dann lösch ich das Tab halt.
    Hättest du auch von Anfang an so machen können. :)
     
  9. Nachwuchs Gonzo

    Nachwuchs Gonzo Threadersteller Registrierter Benutzer

    Im Board seit:
    19.08.03
    Zuletzt hier:
    8.06.08
    Beiträge:
    45
    Zustimmungen:
    0
    Kekse:
    10
    Erstellt: 05.06.08   #9
    Danke, hab mir das Tab herunter geladen. Also die stelle mit den slide wäre ich nicht drauf gekommen. Danke für eure Antworten war echt hilfreich.:)
     
Die Seite wird geladen...

mapping