Kann mir das jemand tabben? (mit Hörbeispiel)

von extra, 12.10.06.

  1. extra

    extra Registrierter Benutzer

    Im Board seit:
    17.10.05
    Zuletzt hier:
    23.05.11
    Beiträge:
    33
    Zustimmungen:
    0
    Kekse:
    10
    Erstellt: 12.10.06   #1
    Servus..

    Hab hier ein Hörbeispiel von MIA (Auferstanden aus Ruinen) und finde die Version ziemlich geil. Ok ist Geschmackssache, aber egal.

    Könnte mir eventuell jemand dazu die Powerchords rausschreiben? Bin im Raushören noch nicht so gut. Ich wäre euch wirklich sehr dankbar!!!

    YouTube - MIA. - Auferstanden aus Ruinen


    Wenn es hilft, hier die Tabs..
    e ---------------------------------------------------------------
    H -----------------1-----1-1-3---------------------1---3---------
    G -2-2-0---3-3-2-0---2---------3---2-2-0---3-3-2-0---2---3-0-----
    D -------3-------------3-----------------3-------------------2-3-
    A ---------------------------------------------------------------
    E ---------------------------------------------------------------


    e ---------------------------------------------------------------
    H ---------------------------------------------------1-----1-1-3-
    G -----------2-0---------------2-0---2-2-0---3-3-2-0---2---------
    D -3-2-0-2-3---------3-2-0-2-3-------------3-------------3-------
    A ---------------3-----------------------------------------------
    E ---------------------------------------------------------------

    e ---------------------------------------------------------------
    H -----------1---------------------------------------------------
    G -3---0-2-0-----0-2-0-------------------------------------------
    D ---3---------3-------3-----------------------------------------
    A ---------------------------------------------------------------
    E ---------------------------------------------------------------
     
  2. Bara

    Bara Registrierter Benutzer

    Im Board seit:
    19.04.04
    Zuletzt hier:
    8.10.08
    Beiträge:
    18
    Zustimmungen:
    0
    Kekse:
    10
    Erstellt: 12.10.06   #2
    Also ehrlich, selten so eine Scheiße gehört / gesehen, schade um das Original... (sollte kein politisches Statement sein).

    Hab gerad keine Gitarre hier, aber das Ding als Powerchords kriegste doch wohl auch vom hinhören mit. Im Zweifelsfall orientier dich halt an den von dir genannten Tabs.
     
  3. fritz 1/2

    fritz 1/2 Registrierter Benutzer

    Im Board seit:
    10.05.06
    Zuletzt hier:
    12.05.07
    Beiträge:
    8
    Zustimmungen:
    0
    Kekse:
    10
    Erstellt: 14.10.06   #3
  4. PopeOnDope

    PopeOnDope Registrierter Benutzer

    Im Board seit:
    27.04.06
    Zuletzt hier:
    16.09.08
    Beiträge:
    243
    Ort:
    Braunschweig
    Zustimmungen:
    0
    Kekse:
    78
    Erstellt: 16.10.06   #4
    boah was ne scheiss stimme....

    krieg ich ja ohren- (und augen-)krebs von.

    noe, tab ich net. lied find ich kagge.sind ja nich viele akkorde..
    wahrscheinlich g,b,c,f oder sowas. am anfang sinds ja nur 2 soweit ich das nach 1xhoeren hoere..

    politik in allen ehren, aber mit soviel nicht vorhandenem talent erreicht die message glaub ich nur sehr sehr wenige...
     
  5. juli

    juli Registrierter Benutzer

    Im Board seit:
    23.11.05
    Zuletzt hier:
    9.12.06
    Beiträge:
    32
    Ort:
    Freudenberg/Siegen/NRW
    Zustimmungen:
    0
    Kekse:
    10
    Erstellt: 16.10.06   #5
    lied ist echt mal oberkacke
     
Die Seite wird geladen...

mapping