leichter Blues || Dr. House vom 10.10

von Rod Gonzalez, 10.10.07.

  1. Rod Gonzalez

    Rod Gonzalez Registrierter Benutzer

    Im Board seit:
    04.03.06
    Zuletzt hier:
    8.10.14
    Beiträge:
    229
    Zustimmungen:
    4
    Kekse:
    283
    Erstellt: 10.10.07   #1
    ich habe zwei Anliegen:

    1. Ich suche relativ leichte blues tabs. Es ist egal ob es schneller oder langsamer blues ist. Ich mag eric clapton und bb king find ich auch nicht schlecht, bin aber auch gerne offen für neues. Ich spiele jetzt zwei jahre. Bendings sind auch kein problem. Kennt da vielleicht einer ne gute Seite?

    2. Ich möchte mal gerne wissen was das war was dr. house gestern (10.10) am ende gespielt hat. Ich konnte das auch von der Musikrichtung her nicht wirklich einordnen. Hoffe hier hat jemand die Folge gesehen und kann mir weiterhelfen.
     
  2. Paddy91

    Paddy91 Registrierter Benutzer

    Im Board seit:
    04.01.07
    Zuletzt hier:
    21.09.13
    Beiträge:
    47
    Zustimmungen:
    0
    Kekse:
    84
    Erstellt: 10.10.07   #2
  3. Axel S.

    Axel S. Registrierter Benutzer

    Im Board seit:
    24.08.05
    Zuletzt hier:
    18.08.11
    Beiträge:
    2.107
    Ort:
    Heimat der Heckschnärre
    Zustimmungen:
    5
    Kekse:
    3.547
    Erstellt: 11.10.07   #3
  4. Ziggla

    Ziggla Registrierter Benutzer

    Im Board seit:
    03.12.05
    Beiträge:
    1.376
    Zustimmungen:
    350
    Kekse:
    5.454
    Erstellt: 11.10.07   #4
    Saugeil,ich dachte mir genau das gleiche als ich die Szene gesehen hab :D!
     
  5. max.uhlmann

    max.uhlmann Registrierter Benutzer

    Im Board seit:
    23.09.07
    Zuletzt hier:
    31.08.09
    Beiträge:
    8
    Zustimmungen:
    0
    Kekse:
    10
    Erstellt: 14.10.07   #5
    Hier wurde doch nach dem Tab gefragt nich irgendwelche Vids
    Also mich würde der Tab auch interessieren!
    Ich danke schon mal im voraus.
     
  6. MartymcFly

    MartymcFly Registrierter Benutzer

    Im Board seit:
    16.01.07
    Zuletzt hier:
    29.02.08
    Beiträge:
    110
    Zustimmungen:
    0
    Kekse:
    50
    Erstellt: 15.10.07   #6
    Hi,

    vielleicht hilft dieses Video beim Raushören der Tabs (auch nachgespielt von einem Youtube-Nutzer), da man einen ganz guten Blick auf das Griffbrett hat. http://youtube.com/watch?v=7k5VDzzK4wg&mode=related&search=
    Würde mich auch sehr darüber freuen, wenn jemand die Tabs veröffentlichen könnte, da ich im Moment kaum Zeit habe, das Lied zu tabben...
     
  7. .nOx

    .nOx Registrierter Benutzer

    Im Board seit:
    20.08.06
    Zuletzt hier:
    23.04.12
    Beiträge:
    1.052
    Ort:
    Hagen
    Zustimmungen:
    2
    Kekse:
    521
    Erstellt: 15.10.07   #7
    Warum fragt keine den Youtube user?!
     
  8. Paddy91

    Paddy91 Registrierter Benutzer

    Im Board seit:
    04.01.07
    Zuletzt hier:
    21.09.13
    Beiträge:
    47
    Zustimmungen:
    0
    Kekse:
    84
    Erstellt: 15.10.07   #8
    Ich glaube ihr verfehlt die Fragen von Rod Gonzalez.
    Er will garnicht wissen was House da spielt sonder welche Musik also Jazz, Blues ect.

    Die Suche nach solchen Tabs hat ja Axel S. beantwortet. (Ich danke dir auch sehr für den Link, werde mir wohl die Bücher auch zulegen^^)

    Edit (15.10.07): Hab dem von Youtube geschrieben, vielleicht antwortet er mir noch.
     
  9. max.uhlmann

    max.uhlmann Registrierter Benutzer

    Im Board seit:
    23.09.07
    Zuletzt hier:
    31.08.09
    Beiträge:
    8
    Zustimmungen:
    0
    Kekse:
    10
    Erstellt: 15.10.07   #9
    Also Leute,
    Ich hab versucht das Ding aus dem Vid zu tabben aber der sound und das bild passen nich zueinander
    ergo:kein Tab!
    Nun als ich in mehreren Foren im Net geschaut hab nach dem Tab musste ich erkennen das auch dies
    ein Schuss in den Ofen war: -nur Fragen kein Antwort
    -oder es sollte angeblich Jimi Hendrix-The wind crys Mary sein
    oder Pearl Jam-Yellow Ledbetter (Diese Idioten)

    Ich hoff nun auf ein Antwort von einem fachkundigen Musiker.
     
  10. Gast90210

    Gast90210 Registrierter Benutzer

    Im Board seit:
    15.01.07
    Beiträge:
    1.289
    Zustimmungen:
    127
    Kekse:
    3.243
    Erstellt: 15.10.07   #10
    Also das vom ersten Vid:

    ---------------------------------------
    ---------------------------------------
    ----------7-9b11b9--7---------------
    -----7h9----------------7h9p7--------
    -------------------------------- 9p7---
    ---------------------------------------10
    A-Dur G-Dur D-Dur und dann Lick:
    ----------------------
    ----------------------
    ---------7-9b11b9-7
    ----7h9--------------
    ----------------------
    ----------------------

    Der Typ in dem Video spielt Moll statt dur, stimmt aber nicht! Die Phrasierungen habe ich der einfachheit halber nicht angegeben, die müsst ihr schon selber raushören! Wär aber für manche bestimmt auch ne gute Übung gewesen...
     
  11. Paddy91

    Paddy91 Registrierter Benutzer

    Im Board seit:
    04.01.07
    Zuletzt hier:
    21.09.13
    Beiträge:
    47
    Zustimmungen:
    0
    Kekse:
    84
    Erstellt: 30.10.07   #11
    Also er hat mir heute geantwortet:
     
  12. MartymcFly

    MartymcFly Registrierter Benutzer

    Im Board seit:
    16.01.07
    Zuletzt hier:
    29.02.08
    Beiträge:
    110
    Zustimmungen:
    0
    Kekse:
    50
    Erstellt: 30.10.07   #12
    Cool, dass er noch geantwortet hat!
    Hier noch einmal die Tabs auf den Kopf gestellt, da Tabs wohl von den meisten Benutzern bevorzugt so gelesen werden...
    Danke!

    e-------------------------------------------------
    B-------3--5b--5--3-------------------------------
    G--2h4---------------2h4--2-----------------------
    D----------------------------2--0--0--------------
    A-------------------------------------------------
    E-------------------------------------------------


    e--------5--5--------3-----2----------------------
    B--------5--5--------3-----3----------------------
    G--------6--6--------4-----2----------------------
    D--------7--7--------5--0-------------------------
    A--------7--7--------5----------------------------
    E--5--5--5--5--3--3--3----------------------------


    e-------------------------------------------------
    B-------3--5b--3----------------------------------
    G--2h4--------------------------------------------
    D-------------------------------------------------
    A-------------------------------------------------
    E-------------------------------------------------


    e--------5--5--------3-----2----------------------
    B--------5--5--------3-----3----------------------
    G--------6--6--------4-----2---------------------
    D--------7--7--------5--0-------------------------
    A--------7--7--------5----------------------------
    E--5--5--5--5--3--3--3----------------------------


    e-------------------------------------------------
    B-------------------------------------------------
    G--2h4--2-----------------------------------------
    D----------2--0--0--------------------------------
    A-------------------------------------------------
    E-------------------------------------------------
     
  13. thetick13

    thetick13 Registrierter Benutzer

    Im Board seit:
    11.09.07
    Zuletzt hier:
    15.04.08
    Beiträge:
    51
    Zustimmungen:
    0
    Kekse:
    10
    Erstellt: 30.10.07   #13
    geiles TAB hat vielleicht jemand noch so was ähnliches?!
     
  14. max.uhlmann

    max.uhlmann Registrierter Benutzer

    Im Board seit:
    23.09.07
    Zuletzt hier:
    31.08.09
    Beiträge:
    8
    Zustimmungen:
    0
    Kekse:
    10
    Erstellt: 31.10.07   #14
    Ich bedanke mich auch nochmal
    Jetz werd ick mal versuchen wa ?!
     
  15. Rod Gonzalez

    Rod Gonzalez Threadersteller Registrierter Benutzer

    Im Board seit:
    04.03.06
    Zuletzt hier:
    8.10.14
    Beiträge:
    229
    Zustimmungen:
    4
    Kekse:
    283
    Erstellt: 31.10.07   #15
    http://youtube.com/watch?v=5AceqJQTMSU

    bin schon gespannt auf den moment wenn die folge in deutschland kommt.

    Hab ihr auch das gefühl das der deutsche sprecher viel besser ist als der englische?
     
  16. Paddy91

    Paddy91 Registrierter Benutzer

    Im Board seit:
    04.01.07
    Zuletzt hier:
    21.09.13
    Beiträge:
    47
    Zustimmungen:
    0
    Kekse:
    84
    Erstellt: 31.10.07   #16
    Ich habe die Folge schon im englischen Original angeschaut.
    Habe aber auch das Gefühl, dass der deutsch Synchronsprecher besser ist.
    Ist aber gewöhnungssache denke ich.

    Und hier die ganze Szene, bei deinem Link fehlt leider der Schluss:
    http://youtube.com/watch?v=jbLwshqk3U0

    Kann einer mir sagen welches Lied er von Van Halen meint?
     
  17. Ziggla

    Ziggla Registrierter Benutzer

    Im Board seit:
    03.12.05
    Beiträge:
    1.376
    Zustimmungen:
    350
    Kekse:
    5.454
    Erstellt: 01.11.07   #17
  18. Sandra1

    Sandra1 Registrierter Benutzer

    Im Board seit:
    04.03.07
    Zuletzt hier:
    7.11.07
    Beiträge:
    3
    Zustimmungen:
    0
    Kekse:
    10
    Erstellt: 04.11.07   #18
    Du könntest dir mal "Pseudohendrix" oder auch bekannt als "Vietcong Theme" anhören.
    Gibts als Text und GPro Tab im Netz. Ist IMO ähnlich wie der House M.D. Song.

    Edit:
    Hier der Song:
    http://youtube.com/watch?v=qyukaLctiZE

    Gibt da auch nen paar Leute, die das nachgespielt haben. Kannst dir ja mal anhören. ; )
     
  19. thetick13

    thetick13 Registrierter Benutzer

    Im Board seit:
    11.09.07
    Zuletzt hier:
    15.04.08
    Beiträge:
    51
    Zustimmungen:
    0
    Kekse:
    10
    Erstellt: 04.11.07   #19
    @Sandra1
    klasse thema, hab nie davon gehört.

    hat vielleicht jemand ende von dem TAB

    e-------------------------------------------------
    B-------3--5b--5--3-------------------------------
    G--2h4---------------2h4--2-----------------------
    D----------------------------2--0--0--------------
    A-------------------------------------------------
    E-------------------------------------------------


    e--------5--5--------3-----2----------------------
    B--------5--5--------3-----3----------------------
    G--------6--6--------4-----2----------------------
    D--------7--7--------5--0-------------------------
    A--------7--7--------5----------------------------
    E--5--5--5--5--3--3--3----------------------------


    e-------------------------------------------------
    B-------3--5b--3----------------------------------
    G--2h4--------------------------------------------
    D-------------------------------------------------
    A-------------------------------------------------
    E-------------------------------------------------


    e--------5--5--------3-----2----------------------
    B--------5--5--------3-----3----------------------
    G--------6--6--------4-----2---------------------
    D--------7--7--------5--0-------------------------
    A--------7--7--------5----------------------------
    E--5--5--5--5--3--3--3----------------------------


    e-------------------------------------------------
    B-------------------------------------------------
    G--2h4--2-----------------------------------------
    D----------2--0--0--------------------------------
    A-------------------------------------------------
    E-------------------------------------------------
     
  20. Raoul_Duke_im_Fl

    Raoul_Duke_im_Fl Registrierter Benutzer

    Im Board seit:
    03.12.07
    Zuletzt hier:
    19.02.10
    Beiträge:
    21
    Zustimmungen:
    0
    Kekse:
    46
    Erstellt: 22.12.07   #20
    Hallo,

    sicher wird das jetzt eine dumme und peinliche Bitte ..... würde mir das hier jemand erklären?
    Ich versteh das einfach nicht :confused:
     
Die Seite wird geladen...

mapping