Limp Bizkit "MY WAY"

von MickThompson7, 12.10.06.

  1. MickThompson7

    MickThompson7 Registrierter Benutzer

    Im Board seit:
    27.08.05
    Zuletzt hier:
    11.05.11
    Beiträge:
    46
    Zustimmungen:
    0
    Kekse:
    10
    Erstellt: 12.10.06   #1
    HI...hab ma ne frage zu den Tab von My Way......Bin zufällig mal drübergestolpert..nun hab ich ein "problem" kann mir mal einer sage wie ich den Distortion part spielen soll??also keine ahnugn hab meine finger schon fast ausgekugelt dabei...Hoffe mir kann einer mal helfen bei den song.....
    tHX
     
  2. Schlafie

    Schlafie Registrierter Benutzer

    Im Board seit:
    27.02.06
    Zuletzt hier:
    11.08.14
    Beiträge:
    207
    Ort:
    Stuttgart
    Zustimmungen:
    0
    Kekse:
    32
    Erstellt: 12.10.06   #2
    Also ich seh da kein Problem bei


    |-4-----4--4---4-----4--4---4---4--5-|
    |------------------------------------|
    |----------------------------------4-|
    |-2-----2--2---2-----2--2---2---2----|
    |-2-----2--2---2-----2--2---2---2--5-|
    |-0-----0--0---0-----0--0---0---0--3-|

    |--5-----5--5---7-----7--7---7---4----|
    |-------------------------------------|
    |--4-----4--4---4-----4--4---4--------|
    |--------------------------------2---|
    |--5-----5--5---5-----5--5---5---2---|
    |--3-----3--3---3-----3--3---3---0---|


    Mit etwas verbiegen geht das schon. :)
     
  3. MickThompson7

    MickThompson7 Threadersteller Registrierter Benutzer

    Im Board seit:
    27.08.05
    Zuletzt hier:
    11.05.11
    Beiträge:
    46
    Zustimmungen:
    0
    Kekse:
    10
    Erstellt: 13.10.06   #3
    Also habs schon paar mal versucht.....und hab mich auch verbogen :o aber das schnell zu spielen das hört sich irgentwie a bissl komisch an....keine ahnung ob ich die restlichen strings nich richtig abdämpfe,ört sich haltkomisch an....kann ma einer versuchen es zu spielen und dann hier reinsetzten??würd mich ma interresieren wie sich das bei euch anhört...thx
     
Die Seite wird geladen...

mapping