Marc Rizzo(Soulfly)- Betcha Can t play this

von msoada, 25.05.06.

  1. msoada

    msoada Mod Emeritus Ex-Moderator

    Im Board seit:
    08.05.05
    Zuletzt hier:
    21.09.15
    Beiträge:
    4.498
    Ort:
    Belgrad
    Zustimmungen:
    62
    Kekse:
    5.984
    Erstellt: 25.05.06   #1
  2. Thaddeus

    Thaddeus Registrierter Benutzer

    Im Board seit:
    27.04.06
    Zuletzt hier:
    21.05.09
    Beiträge:
    2
    Zustimmungen:
    0
    Kekse:
    29
    Erstellt: 18.06.06   #2
    Hi,
    wenn du auf youtube mal hinschaust siehst du nen link wos die tabs mal gab! Hab ich mir mal angeschaut wies die noch gab, hab aber verpeilt mir die zu speichern. Naja ich hab gerade gelesen dass die tabs in der Guitar World Ausgabe April sein solln, da des Video davon is!...

    Cya
    Thaddeus
     
  3. Thaddeus

    Thaddeus Registrierter Benutzer

    Im Board seit:
    27.04.06
    Zuletzt hier:
    21.05.09
    Beiträge:
    2
    Zustimmungen:
    0
    Kekse:
    29
    Erstellt: 17.07.06   #3
    HI
    ich hab nochmal gesucht und hab des tab gefunden! Is zwar nicht 100pro richtig aber die Ansätze sind da! Viel Spaß damit

    Thaddeus

    Code:
    Fig 1                                                              x3
    -7-0---------10-0-8-0---------5-0-|7-0----------3-0-5-0---------3-0-||
    -----5-0-8-0----------7-0-5-0-----|----5-0-11-0---------3-0-1-0----o||
    ----------------------------------|---------------------------------||
    ----------------------------------|---------------------------------||
    ----------------------------------|--------------------------------o||
    ----------------------------------|---------------------------------||
    
    -12-7------12-7--------------------------|-----------------------------------------|
    ------12-7------12-7------12-7-----------|-----------------------------------------|
    ---------------------12-7------12-7------|122-7------------------------------------|
    ------------------------------------12-7-|------12-7------12-7---------------------|
    -----------------------------------------|-----------12-7------12-7------12-7------|
    -----------------------------------------|--------------------------12-7------12-7/|
    
    -17-12-------17-12--------------------------------|---------------------------------------|
    -------17-12-------17-12-------17-12--------------|---------------------------------------|
    -------------------------17-12-------17-12--------|17-12-------------------------/5/22qtrb|
    -------------------------------------------117-12-|------17-12-------17-12----------------|
    --------------------------------------------------|------------17-12-------17-12\---------|
    --------------------------------------------------|---------------------------------------|
    --------------------------------------------------|---------------------------------------|
     
  4. s33k

    s33k Registrierter Benutzer

    Im Board seit:
    12.02.06
    Zuletzt hier:
    16.12.09
    Beiträge:
    104
    Zustimmungen:
    1
    Kekse:
    10
    Erstellt: 17.07.06   #4
    bisschen unsauber für betcha cant play this ...
     
  5. msoada

    msoada Threadersteller Mod Emeritus Ex-Moderator

    Im Board seit:
    08.05.05
    Zuletzt hier:
    21.09.15
    Beiträge:
    4.498
    Ort:
    Belgrad
    Zustimmungen:
    62
    Kekse:
    5.984
    Erstellt: 18.07.06   #5
    Ach, ich machs dann besser und werde der neue aufgehende Stern am Gitarren hero himmel. :D
     
  6. roastbeef

    roastbeef Registrierter Benutzer

    Im Board seit:
    30.11.03
    Zuletzt hier:
    25.07.16
    Beiträge:
    3.424
    Ort:
    Graz
    Zustimmungen:
    72
    Kekse:
    4.088
    Erstellt: 18.07.06   #6
    wer hätte gedacht sich hinter einer solchen 0815 band so ein flinkefinger steckt.
     
  7. msoada

    msoada Threadersteller Mod Emeritus Ex-Moderator

    Im Board seit:
    08.05.05
    Zuletzt hier:
    21.09.15
    Beiträge:
    4.498
    Ort:
    Belgrad
    Zustimmungen:
    62
    Kekse:
    5.984
    Erstellt: 19.07.06   #7
    Hör die "Dark Ages" oder sein Solo Album "Collosal Myopia" an.;)
     
Die Seite wird geladen...

mapping