Silbermond - Meer sein (Guitar Pro)

von Hybrid88, 17.08.06.

  1. Hybrid88

    Hybrid88 Registrierter Benutzer

    Im Board seit:
    22.03.06
    Zuletzt hier:
    15.09.16
    Beiträge:
    55
    Zustimmungen:
    0
    Kekse:
    10
    Erstellt: 17.08.06   #1
    Hallo Leute!
    Kann mir einer von euch vielleicht sagen wo ich n Guitar Pro tab von dem lied finde?? is echt wichtig!!! wenns den nich gibt, könnte mir den vielleicht jemand machen und hochladen???

    Ich hab die SuFu schon benutzt aber nix großartiges gefunden...

    danke, im vorraus!!!!!!!
     
  2. MarkusKl

    MarkusKl Registrierter Benutzer

    Im Board seit:
    22.09.05
    Zuletzt hier:
    5.04.11
    Beiträge:
    474
    Zustimmungen:
    0
    Kekse:
    1.236
    Erstellt: 17.08.06   #2
    Ein GuitarPro File kann ich Dir nicht bieten, aber schau mal hier:
    www.simotabs.de

    LG
    Markus
     
  3. Küsschen

    Küsschen Registrierter Benutzer

    Im Board seit:
    28.05.07
    Beiträge:
    68
    Zustimmungen:
    0
    Kekse:
    10
    Erstellt: 28.05.07   #3
    kann mir das jemand vll schicken über icq bittedas tab will es auf gitarre spielen
     
  4. Midian666

    Midian666 Registrierter Benutzer

    Im Board seit:
    08.04.07
    Zuletzt hier:
    4.12.16
    Beiträge:
    465
    Ort:
    Kassel
    Zustimmungen:
    26
    Kekse:
    343
    Erstellt: 30.05.07   #4
    Meer sein
    Tab by Philipp Markus&Karsten Saal
    Kassel
    Germany

    Guitar Tuning Standard

    Intro:

    D F C B

    E-----------------------------
    H-----------------------------
    G-----------------------------
    D---7-7--10-10--5-5-----------
    A---5-5--8--8---3-3--8-8------
    E--------------------6-6------


    Verse:

    D F C B

    E-----------------------------
    H-----------------------------
    G-----------------------------
    D---7-7--10-10--5-5-----------
    A---5-5--8--8---3-3--8-8------
    E--------------------6-6------


    D C B (palm muted)

    E----------------
    H----------------
    G----------------
    D----------------
    A---5--3---------
    E---------6------



    Refrain:

    D F C B

    E-----------------------------
    H-----------------------------
    G-----------------------------
    D---7-7--10-10--5-5-----------
    A---5-5--8--8---3-3--8-8------
    E--------------------6-6------

    Slide Stelle ist Pause Riff von unten nach oben auf den jeweiligen Akkord!

    Pause:


    D C B

    E-----I-----------
    H-----I-----------
    G-----I-----------
    D---3-I-5--------- D ->(länger gespielt)
    A---5-I-3--8------
    E-----I----6------
     
Die Seite wird geladen...

mapping