Silbermond Tabs "Laut Gedacht"

von markus1989, 16.05.06.

  1. markus1989

    markus1989 Registrierter Benutzer

    Im Board seit:
    26.04.05
    Zuletzt hier:
    29.11.06
    Beiträge:
    20
    Zustimmungen:
    0
    Kekse:
    10
    Erstellt: 16.05.06   #1
    Hi Leute, ich suche die Gitarren Tabs zu dem neuen Album "Laut Gedacht" von Silbermond. Vielleicht habt ihr ja welche oder könnt welche raushöhren.
    Würd mich freuen wenn wir hier n paar Tabs sammeln könnten!!:D
     
  2. markus1989

    markus1989 Threadersteller Registrierter Benutzer

    Im Board seit:
    26.04.05
    Zuletzt hier:
    29.11.06
    Beiträge:
    20
    Zustimmungen:
    0
    Kekse:
    10
    Erstellt: 16.05.06   #2
    Ich hab hier schonmal den Tab von "Unendlich" von nem andren Thema kopiert.

    Meine Augen suchen Wasser in der Wüste.
    e|---|----2--------|-------------|
    H|---|-------------|------0h2----|
    G|---|--2---2------|-2-----------|
    D|---|--------2----|-2--2--------|
    A|---|--------2----|-0-----------|
    E|5p4|2------------|-0-----------|

    Meine Füße tragen lange schon den Durst.
    e|----|---2--------|-------------|
    H|----|------------|-------------|
    G|----|-2---2------|-2-----------|
    D|----|-------2----|-2-----------|
    A|----|-------2----|-0-----------|
    E|5p42|------------|-0-----------|

    Ich bin gefallen und blieb liegen, stand auf und wollte siegen
    e|---|------2--------|-------------|
    H|---|---------------|------0h2----|
    G|---|----2---2------|-2-----------|
    D|---|--2-------2----|-2--2--------|
    A|---|----------2----|-0-----------|
    E|5p4|2--------------|-0-----------|

    Denn ich schmeck das Meer ist nicht mehr weit
    e|---|------2--------|-------------|
    H|---|---------------|-------------|
    G|---|----2---2------|-2-----------|
    D|---|--2-------2----|-2-----------|
    A|---|----------2----|-0-----------|
    E|5p4|2--------------|-0-----------|

    Es ist schwer die Spur im Sand zu finden
    e|---|------2--------|-------------|
    H|---|---------------|------0h2----|
    G|---|----2---2------|-2-----------|
    D|---|--2-------2----|-2--2--------|
    A|---|----------2----|-0-----------|
    E|5p4|2--------------|-0-----------|

    Denn Staub und Sturm stehlen mir die Sicht
    e|---|------2--------|-------------|
    H|---|---------------|-------------|
    G|---|----2---2------|-2-----------|
    D|---|--2-------2----|-2-----------|
    A|---|----------2----|-0-----------|
    E|5p4|2--------------|-0-----------|

    Doch wie ein warmer Sommerregen regnest du auf mein Leben
    e|---|------2--------|-------------|
    H|---|---------------|------0h2----|
    G|---|----2---2------|-2-----------|
    D|---|--2-------2----|-2--2--------|
    A|---|----------2----|-0-----------|
    E|5p4|2--------------|-0-----------|

    wie ein Herr aus Tropfen auf den heißen Stein
    e|---|------2--------|-------------|
    H|---|---------------|-------------|
    G|---|----2---2------|-2-----------|
    D|---|--2-------2----|-2-----------|
    A|---|----------2----|-0-----------|
    E|5p4|2--------------|-0-----------|

    Refrain
    F#m A
    Und wir war'n unendlich
    F#m A
    Und das Wasser legte sich auf uns're Haut
    F#m A
    Um uns alles vergänglich
    E A
    Das behalten wir für uns und den Tag tragen wir bis ins Grab

    Riff dazwischen, leicht angezerrt:
    e|---------------------------------|
    H|-s19v--17v--14v---s12--10v--9-10-|
    G|---------------------------------|
    (Müsste so stimmen, wenn ich mich nicht irre, bin gerade auf der Arbeit und habe keine Gitarre zur Hand ;) )

    Nach dem 2. Refrain mit Distortion mit Rythmusgitarre unterbemalt
    e|--------------------------------------------------|
    H|--17p14-17p14-17p14----14-17p14-17p14-17p14----14-|
    G|--------------------16----------------------16----|

    e|-----------------------------------------------14-|
    H|--17p14-17p14-17p14----14-17p14-17p14-17p14-17----|
    G|--------------------16----------------------------|

    e|--17p14-17p14-17p14----14-17p14-17p14-17p14----14-|
    H|--------------------17----------------------17----|
    G|--------------------------------------------------|

    e|--17p14-17p14-17p14----14-17p14-17p14-17p14----14-|
    H|--------------------17----------------------17----|
    G|--------------------------------------------------|

    Und danach wieder:
    e|---------------------------------|
    H|-s19v--17v--14v---s12--10v--9-10-|
    G|---------------------------------|

    Das dürfte es gewesen sein. Ryhtmus kannste ja selber raushören.__________________
     
Die Seite wird geladen...

mapping