Silbermond Tabs

von rockfreak1, 22.07.06.

  1. rockfreak1

    rockfreak1 Registrierter Benutzer

    Im Board seit:
    13.07.06
    Zuletzt hier:
    21.11.06
    Beiträge:
    24
    Zustimmungen:
    0
    Kekse:
    10
    Erstellt: 22.07.06   #1
    Kann mir jemand sagen wo ich alte Tabs und Tabs von dem neuen Album von Silbermond finde??? Ich habe schon überall gesucht und nichts gefunden!!
     
  2. Sele

    Sele Registrierter Benutzer

    Im Board seit:
    03.08.04
    Zuletzt hier:
    5.12.16
    Beiträge:
    7.147
    Ort:
    Schleswig-Holstein
    Zustimmungen:
    264
    Kekse:
    26.652
    Erstellt: 22.07.06   #2
  3. Fastel

    Fastel Helpful & Friendly User HFU

    Im Board seit:
    11.04.04
    Zuletzt hier:
    5.12.16
    Beiträge:
    5.926
    Ort:
    Tranquility Base
    Zustimmungen:
    565
    Kekse:
    18.025
    Erstellt: 23.07.06   #3
  4. rockfreak1

    rockfreak1 Threadersteller Registrierter Benutzer

    Im Board seit:
    13.07.06
    Zuletzt hier:
    21.11.06
    Beiträge:
    24
    Zustimmungen:
    0
    Kekse:
    10
    Erstellt: 26.07.06   #4
    Vielen Dank an euch beide!!:great:
     
  5. Bran

    Bran Registrierter Benutzer

    Im Board seit:
    30.12.04
    Zuletzt hier:
    6.12.16
    Beiträge:
    2.262
    Zustimmungen:
    572
    Kekse:
    8.327
    Erstellt: 28.07.06   #5
    Intro:

    D F C B

    E-----------------------------
    H-----------------------------
    G-----------------------------
    D---7-7--10-10--5-5-----------
    A---5-5--8--8---3-3--8-8------
    E---------------------6-6-----


    Verse:

    D F C B

    E----------------------------
    H----------------------------
    G----------------------------
    D----7--10---5---------------
    A----5--8----3--8------------
    E----------------6-----------


    D C B (palm muted)

    E----------------
    H----------------
    G----------------
    D----------------
    A---5--3---------
    E---------6------



    Refrain:

    D F C B

    E-----------------------------
    H-----------------------------
    G-----------------------------
    D---7-7--10-10--5-5-----------
    A---5-5--8--8---3-3--8-8------
    E---------------------6-6-----

    Slide Stelle ist Pause Riff von unten nach oben auf den jeweiligen Akkord!

    Pause:


    D C B

    E-----I-----------
    H-----I-----------
    G-----I-----------
    D---3-I-5--------- D ->(länger gespielt)
    A---5-I-3--8------
    E-----I----6------


    bitte schön, man kann mich übrigens auch bewerten :D

    in diesem sinne
    sers
    bran
     
Die Seite wird geladen...

mapping