Solo bei "conquer all" von behemoth

von Schneller Elch, 13.09.07.

  1. Schneller Elch

    Schneller Elch Registrierter Benutzer

    Im Board seit:
    04.09.05
    Zuletzt hier:
    25.07.08
    Beiträge:
    257
    Ort:
    nicht in Österreich
    Zustimmungen:
    0
    Kekse:
    171
    Erstellt: 13.09.07   #1
    Hallo,

    also ich versuch mich grad am black metal und da is mir behemoth in die hände gefallen. Jetzt ist das ja alles ganz schön, aber bei dem solo komm ich nicht klar, weil ich die Technik dahinter nicht erkennen kann. Also ich hab sowas noch nie gesehen. Jetz wollt ich mal wissen wie man sowas am besten spielt, oder ob da gar keine Technik dahinter steckt, sondern man nur völlig irre sein muss.
    Es sieht halt schon irgendwie so aus, als wenn da ein system hinter steckt...

    also hier der tab zum brisanten teil des Solos: (ist etwas spärlich aber mit der Aufnahme dazu kommt man ganz gut klar)

    Code:
    |-17p13-----------------------||---------------------|
    |------15----------15------15-||-16-15-13---15-13-12-|
    |--------14------14--14--14---||---------------------|
    |----------15--15------15-----||---------------------|
    |------------17---------------||---------------------|
    |-----------------------------||---------------------|
    
    
    |-15p12-----------------------||------------15bh-r-14-|
    |------13----------13------13-||-16-15-13-------------|
    |--------14------14--14--14---||----------------------|
    |----------14--14------14-----||----------------------|
    |------------15---------------||----------------------|
    |-----------------------------||----------------------|
    
    
    |-12~~~-1214151412---------||-------12h17p12----------|
    |-----------------151312~~-||-----13--------13--------|
    |--------------------------||---14------------14------|
    |--------------------------||-14----------------14~~~-|
    |--------------------------||-------------------------|
    |--------------------------||-------------------------|

    ansonsten ist hier der restliche tab: http://www.ultimate-guitar.com/tabs/b/behemoth/conquer_all_tab.htm
    hier hätt ich auchnoch die aufnahme: http://www.youtube.com/watch?v=38j-i8jH7xk
    schonmal vielen Dank im vorraus!!

    Gruß vom schnellen Elch!


    achja an alle die auch polnischen death-metal suuper finden: Behemoth - decade of therion!! :great:
     
  2. Metalworker

    Metalworker Registrierter Benutzer

    Im Board seit:
    01.01.05
    Zuletzt hier:
    27.03.13
    Beiträge:
    156
    Ort:
    Salzburg
    Zustimmungen:
    0
    Kekse:
    10
    Erstellt: 13.09.07   #2
    Du könntest es entweder mit Alternate Picking versuchen oder mit Sweeping.
    Wobei ich hier Alternate Picking bevorzugen würde, da das Tempo nicht allzu hoch ist

    Mfg Metalworker
     
Die Seite wird geladen...

mapping