Solo von enter sandman

  • Ersteller Haianson
  • Erstellt am
H
Haianson
Registrierter Benutzer
Zuletzt hier
14.04.11
Registriert
14.10.03
Beiträge
967
Kekse
3.245
Hi
Ich wollt ma fragen ob hier jemand die RICHTIGEN Tabs/Noten fürs Solo von enter sandman hat
Denn ich hab das Gefühl meine sind falsch :?


Danke für eure Hilfe
 
Eigenschaft
 
Domo
Domo
Helpful & Friendly User
HFU
Zuletzt hier
19.01.22
Registriert
31.08.03
Beiträge
10.943
Kekse
14.153
Ort
Hamburg
[code:1]Enter Sandman Solo

E||--------------------|------------------------------|
B||----------------15--|------------------------------|
G||----------------14b-|----14b-14b-14--14b-14b---14b-|
D||--------------------|------------------------------|
A||--------------------|------------------------------|
E||--------------------|------------------------------|



------------------------------|
----12--12--------15b---15b---|
------------14h12-------------|
------------------------------|
------------------------------|
------------------------------|



--------------------------------------------------|
--------------------------------------------------|
--12/14-14-14-14/12-12-12-12/14-14-14-14-12-12-12-|
--------------------------------------------------|
--------------------------------------------------|
--------------------------------------------------|



--------------------------------------|
--------------------------------------|
--14h12-------------------------------|
--------14--14h12---------------------|
------------------14--14h12/10--------|
--------------------------------12/---|



-----12-12-12----12-12-12----12-12-12----12-12-12-|
--15b---------15b---------15b---------15b---------|
--------------------------------------------------|
--------------------------------------------------|
--------------------------------------------------|
--------------------------------------------------|



-----12-12-12h15h12-12h15h12-12h15h12-12-12-15-12-12-14-14-|
--15b------------------------------------------------------|
-----------------------------------------------------------|
-----------------------------------------------------------|
-----------------------------------------------------------|
-----------------------------------------------------------|



--17h14----17h14----17h14-19h15----19h15----19h15-|
--------15-------15-------------17-------17-------|
--------------------------------------------------|
--------------------------------------------------|
--------------------------------------------------|
--------------------------------------------------|



--21h17----21h17----21h17----22~--------|--------------------|
--------17-------17-------17---------9b-|------9b-----9------|
-------------------------------------9b-|------9b-----9------|
----------------------------------------|--------------------|
----------------------------------------|--------------------|
----------------------------------------|--------------------|



---------------------------|-------------------------------|
--9b---9b---------------10-|------10-8-7---8-7---7---------|
--9b---9b---7---------7----|-------------9-----9---9-7---7-|
--------------9~--7h9------|---------------------------9---|
---------------------------|-------------------------------|
---------------------------|-------------------------------|



--------------------------------|----------------------------------|
--------------------------------|----------------------------------|
--9h7---------------------------|--16b-14-------14-16b-14-------14-|
------9h7---7-9h7---------------|----------16--------------16------|
----------9-------9-8-7---------|----------------------------------|
------------------------10-7/---|----------------------------------|



------------------------------------|--------------------------------|
------------------------------------|------17-----17---------17------|
--16b-14-------14-16b-14---------14-|--16b----16b----16b---------16b-|
----------16--------------16--16----|--------------------------------|
------------------------------------|--------------------------------|
------------------------------------|--------------------------------|



------------------|--21h17----21h17----21h17----21h17----21h17----21h17----|
------------------|--------17-------17-------17-------17-------17-------17-|
------------------|--------------------------------------------------------|
------------------|--------------------------------------------------------|
------------------|--------------------------------------------------------|
------------------|--------------------------------------------------------|



--22b-22b22b22b-22b22b22~-------|-------------------------------|
--------------------------------|----10h8h7---------------------|
--------------------------------|-----------9--9h7--------------|
--------------------------------|------------------9--9h7-5--7b-|
--------------------------------|-------------------------------|
--------------------------------|-------------------------------|



----------------------|--------------------|-------------------------|
----------------------|--------------------|-------------------------|
----------------------|--------------------|-------------------------|
--5-------------------|--------------------|-------------------------|
----7-------------5h7-|--4--------------0--|--2----2--2--2--2--2--2--|
----------------------|--------------------|-------------------------|



--------------------------||
--------------------------||
--------------------------||
--------------------------||
--2--2--2--2--2--2--2-----||
-----------------------0--||


[/code:1]

Bitteschön :D
 
H
Haianson
Registrierter Benutzer
Zuletzt hier
14.04.11
Registriert
14.10.03
Beiträge
967
Kekse
3.245
Danke !! :D
 
F
Fis
Registrierter Benutzer
Zuletzt hier
25.02.04
Registriert
25.12.03
Beiträge
158
Kekse
0
Sorry :D , das ist aber nur teils richtig hier nochmal kompelett und richtig:
(wird aber nicht möglich sein ohne Notenwerte das Stück so zu spielen wie es klingen soll,naja... ;) )

[code:1]
N.C. E5 N.C. E5
1/4
e:----------------------------|-------------------------------------|
B:-15-15-15-12-----12---------|------12-12----15b(17)-15b(17)-(15)/-|
G:-------------14b----14b(16)-|-(14)-------14-----------------------|
D:----------------------------|-------------------------------------|
A:----------------------------|-------------------------------------|
E:----------------------------|-------------------------------------|



N.C. G5

e:-------------------------------------------------|
B:-------------------------------------------------|
G:-12/14-14-14-14\12-12-12-12/14-14-14-14\12-12-12-|
D:-------------------------------------------------|
A:-------------------------------------------------|
E:-------------------------------------------------|



F#5 G5 F#5 E5
~~~~~~
e:-------------------------------------|
B:-------------------------------------|
G:-14p12-------------------------------|
D:-------14-14p12----------------------|
A:----------------14-14p12/10----------|
E:----------------------------12-(12)/-|



N.C. E5

e:---------12-12-12---------12-12-12---------12-12-12---------12-12-12-|
B:-15b(17)----------15b(17)----------15b(17)----------15b(17)----------|
G:---------------------------------------------------------------------|
D:---------------------------------------------------------------------|
A:---------------------------------------------------------------------|
E:---------------------------------------------------------------------|



N.C. E5

e:---------12-12-12h15p12-12h15p12-12h15p12-12-15-12-12-14-14-|
B:-15b(17)----------------------------------------------------|
G:------------------------------------------------------------|
D:------------------------------------------------------------|
A:------------------------------------------------------------|
E:------------------------------------------------------------|


N.C. G5

e:-17p14----17p14----17p14-19p15----19p15----19p15-|
B:-------15-------15-------------17-------17-------|
G:-------------------------------------------------|
D:-------------------------------------------------|
A:-------------------------------------------------|
E:-------------------------------------------------|


Half-Time Feel
F#5 G5 F#5 N.C.
~~~~~~~~~~
e:-21p17----21p17----21p17----22b(24)-(22)/--------|------------------|
B:-------17-------17-------17---------------9b(10)-|-(9)---9b(10)---9-|
G:------------------------------------------9b(11)-|-(9)---9b(11)---9-|
D:-------------------------------------------------|------------------|
A:-------------------------------------------------|------------------|
E:-------------------------------------------------|------------------|




~~~~~ ~~~~~~~~
e:-----------------------------------|------------------------------------|
B:-9b(10)--9b(10)-----------------10-|-(10)----10-8-7---7/8\7---7---------|
G:-9b(11)--9b(11)--7--9--------7-----|----------------9-------9---9-7---7-|
D:------------------------7h9--------|--------------------------------9---|
A:-----------------------------------|------------------------------------|
E:-----------------------------------|------------------------------------|


End HTF
F#5 B5 F#5
~~~~~
e:-----------------------------|---------------------------------------|
B:-----------------------------|---------------------------------------|
G:-9p7-------------------------|-16b(18)-14-----14-16b(18)--14------14-|
D:-----9p7---7-9-7-------------|------------16------------------16-----|
A:---------9-------9-6-7-------|---------------------------------------|
E:-----------------------10-7\-|---------------------------------------|



B5 F#5

e:--------------------------------------|
B:--------------------------------------|
G:-16b(18)-14----14-16b(18)-14-------14-|
D:------------16---------------16-16----|
A:--------------------------------------|
E:--------------------------------------|


B5 E5 Grad. Trem.
Release
e:------------------------------------------------|------------|
B:---------17---------17---------------17---------|------------|
G:-16b(18)----16b(18)----16b(18)----------16b(18)-|-(16)-------|
D:------------------------------------------------|------------|
A:------------------------------------------------|------------|
E:------------------------------------------------|------------|



F#5 B5 E5

e:-21p17----21p17----21p17----21p17----21p17----21p17----|
B:-------17-------17-------17-------17-------17-------17-|
G:-------------------------------------------------------|
D:-------------------------------------------------------|
A:-------------------------------------------------------|
E:-------------------------------------------------------|




~~~~~~~~~~~~~~
e:-22b(24)--22-22--22b(24)--22-22-22b(24)-------(22)\-|
B:----------------------------------------------------|
G:----------------------------------------------------|
D:----------------------------------------------------|
A:----------------------------------------------------|
E:----------------------------------------------------|



E5
~~~~trem~~~~
e:-----------------------------|-------------------------|
B:-10p8p7----------------------|-------------------------|
G:--------9-9p7----------------|-------------------------|
D:--------------9-9p7-5--7b(9)-|-5-----------------------|
A:-----------------------------|----7---(7)----------5h7-|
E:-----------------------------|-------------------------|




~~~~~~~trem~~~~~~~
e:--------------------------|
B:--------------------------|
G:--------------------------|
D:--------------------------|
A:-4---(4)----------------0-|
E:--------------------------|
[/code:1]
 
fabio
fabio
Registrierter Benutzer
Zuletzt hier
13.03.10
Registriert
30.12.03
Beiträge
192
Kekse
0
vorraussetzung ist natürlich ein wah - pedal;)
 
Radarfalle
Radarfalle
Registrierter Benutzer
Zuletzt hier
30.11.19
Registriert
19.08.03
Beiträge
927
Kekse
298
Allerdings deswegen weiß ich auch nicht warum jedem Soloanfänger hier im Forum gleich das Enter Sandman Solo empfohlen wird, weil erstens die wenigsten ein WahWah haben und zweitens es trotz wahwah es garnicht mal so einfach ist das einigermaßen "originalgetreu" nachzuspielen. Da gibts einfacheres...
 
D
Daxten
Registrierter Benutzer
Zuletzt hier
23.08.13
Registriert
21.10.03
Beiträge
83
Kekse
0
me emfehlt
nirvana - in bloom
nirvana - smells like teen spirit

is recht einfach und man kriegts schnell hin und reverb haben die meisten auch schon am amp :)
 

Ähnliche Themen


Neue Themen

Unser weiteres Online-Angebot:
Bassic.de · Deejayforum.de · Sequencer.de · Clavio.de · Guitarworld.de · Recording.de

Musiker-Board Logo
Oben