Solo von Metal Heart (Dimmu Borgir): Hilfee...!

  • Ersteller katzengreis
  • Erstellt am
katzengreis
katzengreis
Registrierter Benutzer
Zuletzt hier
19.08.21
Registriert
12.11.03
Beiträge
351
Kekse
105
Ort
NRW
Moin!

In dem Lied spielt irgendwann die Sologitarre ganz alleine diese Melodie:
|-----------------------------12----------------------12------------|
|--------------------------------13----------12-13-15----13---------|
|-4h5p4---5p4---4h5p4---------------14----14----------------14------|
|-------------7-------7-5~-------------14----------------------14---|
|-------------------------------------------------------------------|
|-------------------------------------------------------------------|


|--------13----------------------13-------------------13------------|
|----12-----15----------------15----15-------------15---------------|
|-14-----------16----16----16----------16----16---------------------|
|-----------------17----17----------------17----17------------------|
|-------------------------------------------------------------------|
|-------------------------------------------------------------------|

|-12----------------------12---------------10-----------------------|
|----13----------12-13-15----13---------12----12----------10-12-13--|
|-------14----14----------------14---14----------12----12-----------|
|----------14---------------------14----------------12--------------|
|-------------------------------------------------------------------|
|-------------------------------------------------------------------|

|-10-13--13--------------10-12----12--------10-13----13-------------|
|-----------10--12-10-12-------------12-13--------------10-12-10-12-|
|-------------------------------------------------------------------|
|-------------------------------------------------------------------|
|-------------------------------------------------------------------|
|-------------------------------------------------------------------|

|-10-12----12---------------10-13-10-13------------10-12-10-12------|
|-------------12-13-12-13--------------10-12-10-12-------------12-13|
|-------------------------------------------------------------------|
|-------------------------------------------------------------------|
|-------------------------------------------------------------------|
|-------------------------------------------------------------------|

|-------------------------------------------------------------------|
|-13p12p10-13p12p10-13p12p10-13p12p10-15p13p12-15p13p12-17p15p13----|
|-------------------------------------------------------------------|
|-------------------------------------------------------------------|
|-------------------------------------------------------------------|
|-------------------------------------------------------------------|

|-------------------------------------------------------------------|
|-17p15p13-18p17p15-18p17-20-18-16----------------------------------|
|----------------------------------19-17-16-------------------------|
|-------------------------------------------18-17-15----------------|
|----------------------------------------------------18-17-15-------|
|-------------------------------------------------------------19-17-|

|-------------------------------------------------------------------|
|-------------------------------------------------------------------|
|-------------------------------------------------------------------|
|---------------------------16-17-19-17---14------------------------|
|---------------14-15-17-18-----------------------------------------|
|-15-14---15-17-----------------------------------------------------|

|-12-15-12----------------12-15-12----------------------------------|
|----------13----------13----------13----------13-------------------|
|-------------12----12----------------12----12----------------------|
|----------------13----------------------14-------------------------|
|-------------------------------------------------------------------|
|-------------------------------------------------------------------|

|-12-15-12----------------12-15-12----------------------------------|
|----------13----------13----------13-------------------------------|
|-------------12----12----------------12----------------------------|
|----------------13-------------------------------------------------|
|-------------------------------------------------------------------|
|-------------------------------------------------------------------|

Meine Frage bezieht sich auf dieses Gedudel nach den Pull-off's.
1) Greift man bei dem ersten "Muster" (12-13-14-14) die D- und G-Saite mit einem Finger im 14. Bund? Die gleiche Frage stellt sich etwas später bei dem 10-12-12-12 "Muster". Alle Saiten im 12. Bund mit einem Finger?
2) Sollte man das sweepen?
Danke für eure Antworten,
MfG,
Mikel
 
Eigenschaft
 
M
max7000
Registrierter Benutzer
Zuletzt hier
13.05.07
Registriert
19.03.05
Beiträge
528
Kekse
314
Ort
Salzburg
ich kenn zwar das lied nicht, aber zu frage 1 du kannst einen 'minibarre' machen oder einfach mit nem anderen finger greifen also
|-12-------|Zeigefinger
|--13------|Mittelfinger
|---14-----|Kleiner Finger
|-----14---
|Mittelfinger
|----------|
|----------|
so würd ich greifen
 
Disposable Hero
Disposable Hero
Registrierter Benutzer
Zuletzt hier
07.08.10
Registriert
30.06.04
Beiträge
837
Kekse
270
Ort
Chemnitz
Da ich den Song nicht kenne, kann ich dir nur deine erste Frage beantworten:

Ja, du solltest nur einen Finger für einen Bund benutzen, und die Umklapptechnik anwenden - einfach den Finger richtig hinlegen, und dann auf die andere Seite umklappen. Dazu müsste es hier im Forum bestimmt schon Threads geben, kannst ja mal die Suchfunktionb anschmeißen für mehr Details über das Umklappen.

Edit: @Max7000: Das wird bei hohem tempo etwas schwierig werden und es könnte in diesen Lagen auch etwas eng werden mit 2 Fingern in einem Bund...
 
katzengreis
katzengreis
Registrierter Benutzer
Zuletzt hier
19.08.21
Registriert
12.11.03
Beiträge
351
Kekse
105
Ort
NRW
ich würde es normalerweise auch mit "umklappen" spielen, nur ist das bei mir in solchen lagen noch etwas wackelig. naja, dann muss ich halt einfach wie gehabt weiterüben ;)

Danke euch beiden!! :great:

MfG,
Mikel
 
M
Megarob$
Registrierter Benutzer
Zuletzt hier
16.03.08
Registriert
03.03.05
Beiträge
248
Kekse
9
ich glaube das ist eine cover version vom Accept klassiker Metal Heart
ich würde es auch so greifen wie es schon max7000 angegeben hat aber dan nur einzel noten spielen nicht als akkord spielen :great:
 
msoada
msoada
Mod Emeritus
Ex-Moderator
Zuletzt hier
21.09.15
Registriert
08.05.05
Beiträge
4.489
Kekse
5.974
Ort
Belgrad
Es ist eine Cover Version von Accept, das original ist 1000 mal besser, aber so wie die anderen das sagen hab ich es auhc probiert und es hat reibungslos geklappt.:great:
 
M
Mystic Circle
Registrierter Benutzer
Zuletzt hier
12.08.16
Registriert
21.10.04
Beiträge
47
Kekse
0
Ach wat des Lied is von Dimmu Borgir am geilsten...

Wie alles was von denen is...
 

Ähnliche Themen


Neue Themen

Unser weiteres Online-Angebot:
Bassic.de · Deejayforum.de · Sequencer.de · Clavio.de · Guitarworld.de · Recording.de

Musiker-Board Logo
Oben