Stairway to Heaven - Part 2 - D-Dur Problem

von sirsmokealot, 04.01.08.

  1. sirsmokealot

    sirsmokealot Registrierter Benutzer

    Im Board seit:
    07.02.06
    Zuletzt hier:
    21.01.09
    Beiträge:
    97
    Zustimmungen:
    0
    Kekse:
    10
    Erstellt: 04.01.08   #1
    Hallo liebe Musiker-Gemeinde,

    ich hab n kleineres Problem und ich finds leider nicht raus, vielleicht wäre einer so nett ,..

    Also wie schon der Titel verrät, handelt es sich um ein Problem mit der D-Dur
    Tab:

    |-3---3-3-3--3--0-0-|-2-------2------- |-3--3-3-3--3--0-0---7-|--5---3---5----|
    |-1---1-1-1--1--1-3-|-3--3--3---3-0-0 |-1--1-1-1--1--1-1---8-|--7---5---7----|
    |-2---2-2-2--2--2-2-|-2-----------0-0- |-2--2-2-2--2--2-2---9-|--7---5---7----|
    |-2---2-2-2--2--2--- |--0------------- |-2--2-2-2--2--2-2---0-|-------------0-|
    |----------------------|----------------- |---------------------|-------------0-|
    |----------------------|----------------- |----------------------|---------------|

    Das klingt leider einfach nicht richtig, jetzt wollte ich euch fragen ob jemand mir hier weiterhelfen könnte, 2ter takt - D-Dur.

    Fals jemand helfen kann bin ich sehr dankbar, wenn meine Problemforumlierung zu umständlich ist bitte einfach schreibe dann versuchs ich nochmal. :p

    Danke
    Grüße

    Your ...
     
  2. Hyrael

    Hyrael Registrierter Benutzer

    Im Board seit:
    30.03.06
    Zuletzt hier:
    29.11.16
    Beiträge:
    714
    Ort:
    Graz (AT)
    Zustimmungen:
    124
    Kekse:
    2.083
    Erstellt: 04.01.08   #2
    Nun... da spiel ich viel nach Gefühl, habs kurz mal eingespielt.

    http://rapidshare.com/files/81183816/sth.wav.html

    Klingt eigentlich dem originalen ziemlich ähnlich ( bis auf die Soundeinstellung natürlich, hab da nun nicht viel rumgebastelt, sondern nur in 30sek schnell einmal eingespielt ^^ )

    Lg
     
  3. sirsmokealot

    sirsmokealot Threadersteller Registrierter Benutzer

    Im Board seit:
    07.02.06
    Zuletzt hier:
    21.01.09
    Beiträge:
    97
    Zustimmungen:
    0
    Kekse:
    10
    Erstellt: 04.01.08   #3
    Hallo Hyrael, danke echt feine Sache von dir das du das mal schnell reinstellst :great:

    bzw. grüß Puntigam von mir ;)

    LG
    Smoked a Lot
     
  4. Hyrael

    Hyrael Registrierter Benutzer

    Im Board seit:
    30.03.06
    Zuletzt hier:
    29.11.16
    Beiträge:
    714
    Ort:
    Graz (AT)
    Zustimmungen:
    124
    Kekse:
    2.083
    Erstellt: 04.01.08   #4
    Hehe werde ich machen, soll ich dir sonst noch irgendwie helfen? Wennst willst kann ich dir das über ICQ/MSN oder so erklären, habe die Gitarre im Line In drin und kann somit Live spielen ;)
     
  5. Uweausköln

    Uweausköln Registrierter Benutzer

    Im Board seit:
    25.05.06
    Zuletzt hier:
    6.11.13
    Beiträge:
    12
    Ort:
    Köln
    Zustimmungen:
    0
    Kekse:
    58
    Erstellt: 05.01.08   #5
    hallo,
    habe mir das mal angeschaut, und aufgeschriebenn wie ich das spiele.
    (Die Tabs habe ich in Courier New geschrieben, weil sie hier verzerrt ankommen)
    ich hoffe, das es das ist.
    ansonsten habe ich noch das reine D-Dur gehacke.






    |-3---3-3-3--3--0-0-|-2-------2-------|-3--3-3-3--3--0-0---7-|--5---3---5----|
    |-1---1-1-1--1--1-3-|-3--3--3---3-0-0-|-1--1-1-1--1--1-1---8-|--7---5---7----|
    |-2---2-2-2--2--2-2-|-2-----------0-0-|-2--2-2-2--2--2-2---9-|--7---5---7----|
    |-2---2-2-2--2--2---|-0---------------|-2--2-2-2--2--2-2---0-|-------------0-|
    |-------------------|-----------------|----------------------|-------------0-|
    |-------------------|-----------------|----------------------|---------------|

    habe die Tabulatur für mich vereinfacht, das thema läuft ja oft durch. und fast immer in 4 phasen.
    also: die abstände, zeiten zw. den akkorden verändert, Leersaiten spielen wie eingezeichnet...

    Part1
    |-3---3-3-3-3--0--0--2--2-2-2-2-2-|
    |-1---1-1-1-1--1--3--3--3-3-3-3-3-|
    |-2---2-2-2-2--2--2--2--2-2-2-2-2-|
    |-2---2-2-2-2--2--0--0--0-0-0-0-0-|
    |---------------------------------|
    |---------------------------------|

    |-3--3-3-3--3--0-0---7-|--5---3---5----|
    |-1--1-1-1--1--1-1---8-|--7---5---7----|
    |-2--2-2-2--2--2-2---9-|--7---5---7----|
    |-2--2-2-2--2--2-2---0-|-------------0-|
    |----------------------|-------------0-|
    |----------------------|---------------|
    Part2
    |-3--3-3-3-3--0--7--5--3--5-5-5-5-5-|
    |-1--1-1-1-1--1--8--7--5--7-7-7-5-5-|
    |-2--2-2-2-2--2--9--7--5--7-7-7-7-7-|
    |-2--2-2-2-2--2---------------------|
    |-----------------------------------|
    |-----------------------------------|

    Part3
    |-3---3-3-3-3--0--0--2--2-2-2-2-2-|
    |-1---1-1-1-1--1--0--3--3-3-3-3-3-|
    |-2---2-2-2-2--0--0--2--2-2-2-2-2-|
    |-2---2-2-2-2--2--0--0--0-0-0-0-0-|
    |---------------------------------|
    |---------------------------------|
    Part4
    |-3--3-3-3-3--0--7--5--3--5-|
    |-1--1-1-1-1--1--8--7--5--7-|
    |-2--2-2-2-2--2--9--7--5--7-|
    |-2--2-2-2-2--2-------------|
    |---------------------------|
    |---------------------------|


    cu Uwe
     
Die Seite wird geladen...

mapping