Subway to Sally Tabs.

von humbuk, 13.11.04.

  1. humbuk

    humbuk Registrierter Benutzer

    Im Board seit:
    16.06.04
    Zuletzt hier:
    12.08.09
    Beiträge:
    87
    Ort:
    Köln
    Zustimmungen:
    0
    Kekse:
    25
    Erstellt: 13.11.04   #1
    Kennt einer von euch eine Seite wo man Tabs zu Subway to Sally findet?

    hab bislang nur auf folkmetal.de was gefunden, aber die haben nicht sonderlich viele Tabulatoren, vorallem nicht die, die ich gerne hätte.. (z.B. 2000 Meilen unterm Meer)
     
  2. Fastel

    Fastel Helpful & Friendly User HFU

    Im Board seit:
    11.04.04
    Zuletzt hier:
    29.11.16
    Beiträge:
    5.925
    Ort:
    Tranquility Base
    Zustimmungen:
    565
    Kekse:
    18.025
    Erstellt: 13.11.04   #2
    einige lieder hab ich... teilweise selbst, teilweise irgendwo gefunden (KA wo) ... musst schon speziell werden...

    edit: dann werd ich mal speziell ... "Kleid aus rosen", "herrin des Feuers", "der vagabund", "erdbeermund" könnte ich dir besorgen... aber nur wenn du die auch wirklich spielen willst (ist nicht in 10 sek erledigt die hier reinzuschreiben)
     
  3. humbuk

    humbuk Threadersteller Registrierter Benutzer

    Im Board seit:
    16.06.04
    Zuletzt hier:
    12.08.09
    Beiträge:
    87
    Ort:
    Köln
    Zustimmungen:
    0
    Kekse:
    25
    Erstellt: 13.11.04   #3
    Also wenn du mir das Tab zu der Vagabund hier reinschreiben würdest, würde ich mich freuen. :)

    Und natürlich würde ich das spielen. :o
     
  4. Fastel

    Fastel Helpful & Friendly User HFU

    Im Board seit:
    11.04.04
    Zuletzt hier:
    29.11.16
    Beiträge:
    5.925
    Ort:
    Tranquility Base
    Zustimmungen:
    565
    Kekse:
    18.025
    Erstellt: 14.11.04   #4
    weiß nicht ob es korrekt ist... ist von guitar pro und nur das intro:
    A - 2x:
    -------------5-------------
    -------5----------5--------
    ----5-----5----5-----5-----
    ---------------------------
    ---------------------------
    -5------------------------

    B - 2x:
    -------------------------
    -------6-----8-----6-----
    ----5-----5----5-----5---
    -------------------------
    -------------------------
    -5-----------------------

    dann wieder 2 mal A... dann 2x

    ------------------------------
    -------------5----------------
    -------7-----------7----------
    ----5-----5-----5-----5-------
    ------------------------------
    -5----------------------------

    dann wieder 2x A und 2x B ... dann 2x:

    --------------------------------------------------12-
    -5--------5--3-----3----1--------1--3------3-----10-
    ----5----------4-----------0-----------4----------9--
    -------5---------5------------2----------5--------7--
    -0-----------0----------0-----------0-------------0--
    -----------------------------------------------------
     
  5. humbuk

    humbuk Threadersteller Registrierter Benutzer

    Im Board seit:
    16.06.04
    Zuletzt hier:
    12.08.09
    Beiträge:
    87
    Ort:
    Köln
    Zustimmungen:
    0
    Kekse:
    25
    Erstellt: 14.11.04   #5
    wenn du das als .gp* datei hast, könntest du sie mir schicken? Wäre nett von dir

    humbuk@netcologne.de
     
Die Seite wird geladen...

mapping