[Suche] America - Man's Road Akkorde o.ä.

von Danic, 14.07.06.

  1. Danic

    Danic Registrierter Benutzer

    Im Board seit:
    14.07.06
    Zuletzt hier:
    30.07.06
    Beiträge:
    4
    Zustimmungen:
    0
    Kekse:
    10
    Erstellt: 14.07.06   #1
    Hallo!

    Ich hoffe ihr könnt mir helfen! Ich suche jetzt schon seit einer ganzen Weile nach Akkorden, Noten, oder sogar Guitar Pro Dateien für das Lied Man's Road von America! Aber ich finde nichts! Das einzige, was ich heraushören kann, ist das Intro!

    (Man kennt das Lied aus dem Film Das Letzte Einhorn!)

    Code:
    -1---0h1p0---------0---1--3--5--3--10-/-12------
    -3---3---------3----3---3--3--3--3-----------------
    -2------------- 2---------------2--------------------
    ------------------------------------------------------
     ------------------------------------------------------
     ------------------------------------------------------
    
    -13--12--12-----10-----------------10-------------
     ------------------------13--12--10-------12--------
     ------------------------------------------------------
    ------------------------------------------------------
     ------------------------------------------------------
     ------------------------------------------------------
    
    Hier mal der Liedtext:

    Horizon rising up to meet the purple dawn.
    Dust demon, screaming, bring an eagle to lead me on.
    For in my heart I carry such a heavy load.
    Here I am, on Man's road.

    Walking man's road.

    I'm hungry, weary, but I cannot lay me down.
    The rain comes, dreary, but there's no shelter I have found.
    It will be a long time till I find my abode.
    Here I am, on Man's road.

    Walking man's road.

    Moon rising, disguising lonely streets in gray displays
    The stars fade, the nightshade, closing makes the world afraid.
    It waits in silence for the sky to explode.
    Here I am on Man's road.

    Walking man's road.




    Ich hoffe ihr könnt mir helfen!
    Vielen Dank schon einmal!
     
  2. Danic

    Danic Threadersteller Registrierter Benutzer

    Im Board seit:
    14.07.06
    Zuletzt hier:
    30.07.06
    Beiträge:
    4
    Zustimmungen:
    0
    Kekse:
    10
    Erstellt: 17.07.06   #2
    *schieb*

    Kann mir niemand helfen? Ihr seid doch alle Gitarrenprofis. Möchte mir das keiner heraushören? Mehr als das Intro schaffe ich nicht.
     
Die Seite wird geladen...

mapping