Metallica - One

von Dieter5858, 07.07.06.

  1. Dieter5858

    Dieter5858 Registrierter Benutzer

    Im Board seit:
    02.07.05
    Zuletzt hier:
    21.08.09
    Beiträge:
    170
    Zustimmungen:
    0
    Kekse:
    10
    Erstellt: 07.07.06   #1
    Hiho Leutz

    In meiner Band wollen wir uns jetzt an One von Metallica ranmachen.
    Hab ich mir auch schön den Tab zu angeschaut,
    aber ich hab irgendwie keine Ahnung in welcher Geschwindigkeit der das spielt.
    Ich kanns vonner MP3 einfach nicht raushören.
    Kann mir jemand helfen.
    Hier schonmal der der erste Teil des Tabs den ich benutze...

    |------------|----4---------|------------|
    |------------|--------------|------------|
    |------------|-2----2-2h3-2-|------------|
    |-3----3-0-2-|--------------|-3----3-0-2-|

    |----4---------|---------------|---------------|
    |--------------|--------7-5----|---------------|
    |-2----2-2h3-2-|-0----0-----7-|---------------|
    |--------------|---------------|-3----3-0-2-3--|

    |------------|------------||-------7-------|
    |------------|------------||---7-----------|
    |----------4-|----5-----7-||-5---5---/7----|
    |-0----0-2---|-3----3-5---||------------8-|

    |------------|------------|--------------|
    |----5-------|----3---3---|-----2---2----|
    |------------|------------|---2---2---2/-|
    |-3----3-5-3-|-1----1---1-|-0------------|

    |--------7-------|------------|------------|
    |----7-----------|----4-------|----3---3---|
    |-/5---5---/7----|------------|------------|
    |-------------8-|-3----3-5-3-|-1----1---1-|
     
  2. Bortesch

    Bortesch Registrierter Benutzer

    Im Board seit:
    24.10.05
    Zuletzt hier:
    19.04.15
    Beiträge:
    158
    Ort:
    Friesland
    Zustimmungen:
    0
    Kekse:
    53
    Erstellt: 07.07.06   #2
    Hi,
    ja das ist ziemlich schwer. Aber wenn du GuitarPro4 hast oder dir die Demoversion runterlädst bekommst du es ziemlich schnell auf die Reihe.
    Hoffe das hilft dir etwas, was anderes kann ich dir leider nicht anbieten:o
     

    Anhänge:

    • One.gp4
      Dateigröße:
      94,2 KB
      Aufrufe:
      81
  3. Bass Boss

    Bass Boss Gesperrter Benutzer

    Im Board seit:
    24.07.05
    Zuletzt hier:
    26.08.09
    Beiträge:
    2.431
    Zustimmungen:
    10
    Kekse:
    1.719
    Erstellt: 08.07.06   #3
    ich empfehle auch GP aber es ist ca. 125 bpm schnell auch wenn das im song halt schon variiert.
     
Die Seite wird geladen...

mapping