Sweeping/Tapping in Improvisationen

von cooldie, 22.11.06.

  1. cooldie

    cooldie Registrierter Benutzer

    Im Board seit:
    09.10.06
    Zuletzt hier:
    21.12.14
    Beiträge:
    102
    Zustimmungen:
    0
    Kekse:
    10
    Erstellt: 22.11.06   #1
    Hi,
    kann mir von euch jemand vielleicht ein Beispiel geben wie man Sweeping und Tapping in eine Improvisation einbauen kann? Und werden im Sweeping spezielle Akkorde gesweept? Sind doch Akkorde sozusagen?

    Wäre da über ein bisschen Hilfe sehr dankbar

    Gruß
     
  2. Hormic

    Hormic Registrierter Benutzer

    Im Board seit:
    21.10.06
    Zuletzt hier:
    30.04.16
    Beiträge:
    203
    Zustimmungen:
    1
    Kekse:
    175
    Erstellt: 23.11.06   #2
    naja im prinzip kannst du alle töne der tonleiter die du normal spielst auch tappen bzw. sweepen.
    zB. wenn du in Amoll pent am 5. bund unterwegs bist, kannst du versuchen einzelne töne von der nächsten lage zu tappen oder eine oktave höher.
    zB eine lage höher
    Z---K-----T
    5---8----10
    5---8----10
    5---7----9

    oder versuchs mal eine oktave höher:

    Z---K-----T
    5---8----17----8----5---8----20----8----5
    -------------------------------------------------5---8----20

    das ganze natürlich mit hammer-on und pull offs wobei
    z-zeigefinger ist
    k-kleiner oder ringfinger
    und t -tabfinger im idealfall mittelfinger rechte hand

    gesweept werden vorwiegend arpeggios im fall der Am penta wäre da folgendes ein
    standard am sweep arp


    -----------------------12----17
    ------------------13----------
    -------------14---------------
    ---------14-------------------
    12-h-15-----------------------
    ------------------------------- - abwärts

    12--p-8--------------------------
    ---------10---------------------
    -------------9---------------
    ---------------10---------------
    -------------------12----------
    ------------------------------- - aufwärts

    in eine improvisation kannst du zb auch kleine sweeps einbauen die nur über die 3 hohen saiten gehen und nicht über alle fünf, damit du den fluss nicht verlierst.
     
Die Seite wird geladen...

mapping