Tabhilfe: BumBum-Song :)

  • Ersteller Oliver_
  • Erstellt am
Oliver_
Oliver_
Registrierter Benutzer
Zuletzt hier
29.11.20
Registriert
15.04.05
Beiträge
2.751
Kekse
2.829
Ort
Frankfurt am Main
http://rapidshare.de/files/4392839/bumbum.mp3.html
Kann mir das vielleicht einer tabben? :D

Hab zwar im Netz zwei verschiedene gefunden, aber die erscheinen mir nicht richtig...:
Code:
G:---------------------------------------------------
D:------------------5--------------------------------
A:-----5-53-1-11-3-3--0-0-33-4-5---------------------
E:---------------------------------------------------


G:------------------------------------------
D:----------------------0-------------------
A:0--0--------------------------------------
E:----3---1-1-----1--3-----3--0---0-0-03----

Oder sind die doch richtig? :/


Gruß
 
Eigenschaft
 
Nullchecker
Nullchecker
Registrierter Benutzer
Zuletzt hier
21.11.17
Registriert
21.08.04
Beiträge
1.701
Kekse
3.382
Ort
Mannheim
lol, meinst du den Bum Bum-Song von Tom Green? :D

Oh, ups...hast's ja hochgeladen.

Das erste stimmt, zumindest grob. Das zweite is zu tief, sonst würde es auch (grob) stimmen. Warum probierst du's denn nich einfach aus?
 

Ähnliche Themen


Unser weiteres Online-Angebot:
Bassic.de · Deejayforum.de · Sequencer.de · Clavio.de · Guitarworld.de · Recording.de

Musiker-Board Logo
Oben