Tabs Ärzte - Ich ess Blumen

von Archangel13, 15.12.06.

  1. Archangel13

    Archangel13 Registrierter Benutzer

    Im Board seit:
    24.09.05
    Zuletzt hier:
    12.06.09
    Beiträge:
    88
    Zustimmungen:
    0
    Kekse:
    10
    Erstellt: 15.12.06   #1
    Ich suche die bass tabs der akustik version von ich ess blumen ... den chorus kann ich aber das andere kann man nur ganz schwer raushören finde ich .. kann mir einer da weiter helfenß

    MFG ARCH
     
  2. zoni

    zoni Registrierter Benutzer

    Im Board seit:
    20.09.06
    Zuletzt hier:
    26.09.16
    Beiträge:
    84
    Zustimmungen:
    1
    Kekse:
    276
    Erstellt: 15.12.06   #2
  3. Archangel13

    Archangel13 Threadersteller Registrierter Benutzer

    Im Board seit:
    24.09.05
    Zuletzt hier:
    12.06.09
    Beiträge:
    88
    Zustimmungen:
    0
    Kekse:
    10
    Erstellt: 15.12.06   #3
    die stimmen irgendwei net ...
     
  4. Ryknow

    Ryknow Registrierter Benutzer

    Im Board seit:
    18.01.06
    Zuletzt hier:
    18.08.15
    Beiträge:
    4.640
    Ort:
    Zuhause
    Zustimmungen:
    730
    Kekse:
    10.700
    Erstellt: 16.12.06   #4
    Ich hab mich eben mal rangemacht...aber bei den Enden bin ich mir nicht sicher...


    G---6-6---6------13---9-9---9-----16----------------------------------
    D--------------------------------------7-7---7-----14---9--11---13---9
    A-4-----4---4/11----7-----7---7/14------------------------------------
    E------------------------------------5-----5---5/12---7---9---11---7---

    G---6-6---6------13---9-9---9-----16------------------------------------
    D--------------------------------------7-7---7-----14---9--11---13----16
    A-4-----4---4/11----7-----7---7/14--------------------------------------
    E------------------------------------5-----5---5/12---7---9---11---14---
     
  5. Deltafox

    Deltafox Helpful & Friendly User HFU

    Im Board seit:
    11.10.04
    Zuletzt hier:
    9.12.16
    Beiträge:
    7.547
    Zustimmungen:
    590
    Kekse:
    18.405
    Erstellt: 16.12.06   #5
    ich hatte mal irgendwo ein Tab dazu gelesen, da wurde am Ende vom Riff statt der letzten Oktave bei Ryknow einfach nur ein Slide zum Riffanfang zurück gemacht, war aber auch für die Unplugged-Version
     
Die Seite wird geladen...

mapping