Tears don´t fall- tab

von Jeli320, 31.01.07.

  1. Jeli320

    Jeli320 Registrierter Benutzer

    Im Board seit:
    21.03.06
    Zuletzt hier:
    11.03.11
    Beiträge:
    114
    Zustimmungen:
    0
    Kekse:
    78
    Erstellt: 31.01.07   #1
    Das Intro ist mir eigentlich ganz klar und is ja ganz einfach!

    Intro

    E E E E E E E E E E E E E E E E
    ||------------------|------------------|
    ||o-----------------|------------------|
    ||------9---9-9---9-|---9-9---10---9---|
    ||--7-7---7-----7---|-7-----7----7---7-|
    ||o-----------------|------------------|
    ||------------------|------------------|


    (F5) (G5)
    E E E E E E E E E E E E E E E E
    |---------------------|------------------------||
    |---------------------|-----------------------o||
    |---------------------|------------------9-10--||
    |-----10---10-10---10-|-------12----9-10-------||
    |-8-8----8-------8----|-10-10----10-----------o||
    |---------------------|------------------------||



    So dai is es!
    Aber ich möchte nun bitte wissen, wie man den teil spielt, nachdem er "let´s go" schreit

    mfg
     
  2. dynasty

    dynasty Registrierter Benutzer

    Im Board seit:
    04.09.05
    Zuletzt hier:
    5.04.15
    Beiträge:
    187
    Ort:
    Wardenburg
    Zustimmungen:
    0
    Kekse:
    73
    Erstellt: 31.01.07   #2
  3. Jeli320

    Jeli320 Threadersteller Registrierter Benutzer

    Im Board seit:
    21.03.06
    Zuletzt hier:
    11.03.11
    Beiträge:
    114
    Zustimmungen:
    0
    Kekse:
    78
    Erstellt: 07.02.07   #3
    Weil diese TABS einfach nicht stimmen!
    Ich kann machen was ich will aber das hört sich nicht so wie tears dont fal an!
    mfg
     
  4. dynasty

    dynasty Registrierter Benutzer

    Im Board seit:
    04.09.05
    Zuletzt hier:
    5.04.15
    Beiträge:
    187
    Ort:
    Wardenburg
    Zustimmungen:
    0
    Kekse:
    73
    Erstellt: 07.02.07   #4
Die Seite wird geladen...

mapping