papa roach - last resort: frage zu tabs

von Snowball, 22.03.06.

  1. Snowball

    Snowball Registrierter Benutzer

    Im Board seit:
    13.11.05
    Zuletzt hier:
    4.05.07
    Beiträge:
    358
    Ort:
    Düsseldorf
    Zustimmungen:
    0
    Kekse:
    12
    Erstellt: 22.03.06   #1
    meine tabs sind im standard-tuning, obwohl es eigentlich in drop d ist. der typ meint, es sei so einfacher. keine ahnung, ob das stimmt...

    -|------------------------------------------|
    -|------------------------------------------|
    -|------------------------------------------|
    -|-----------9--------------------9---------|
    -|-7-10-9-10---10-9-10----10-9-10---10-9-10-|
    -|---------------------10-------------------|
    1 e + a 2 e + a 3 e + a 4 e + a

    -|------------------------------------------|
    -|------------------------------------------|
    -|------------------------------------------|
    -|------------9-------------------9---------|
    -|----10-9-10---10-9-10---10-9-10---10-9-10-|
    -|-8--------------------7-------------------|
    1 e + a 2 e + a 3 e + a 4 e + a

    wie spielt ihr das (finger)?

    edit: was bedeuten die in rot eigentlich?
     
  2. GI Peter Pan

    GI Peter Pan Registrierter Benutzer

    Im Board seit:
    12.12.05
    Zuletzt hier:
    9.12.16
    Beiträge:
    3.001
    Zustimmungen:
    9
    Kekse:
    1.276
    Erstellt: 22.03.06   #2
    10 ringfinger
    9 mittelfinger
    8 und 7 zeigefinger, so hab ichs immer gespielt

    das in rot is einfach der takt. 1 für jede volle viertel e+a für die jeweiligen 16tel, shcätz ich auf jedenfall
     
  3. Red

    Red Registrierter Benutzer

    Im Board seit:
    20.02.06
    Zuletzt hier:
    7.12.11
    Beiträge:
    64
    Zustimmungen:
    0
    Kekse:
    10
    Erstellt: 22.03.06   #3
    http://www.planet-guitar.de/lickderwoche/Lick35/page_b.html

    Sieh dir das mal an, da sind die Tabs genau erklärt, sogar mit welchem Finger man welchen Ton spielen sollte/kann. Ich finde die dort empfohlene Variante echt top. Mit ein bischen Übung geht das ganze dann ziemlich locker von der Hand...
     
  4. Snowball

    Snowball Threadersteller Registrierter Benutzer

    Im Board seit:
    13.11.05
    Zuletzt hier:
    4.05.07
    Beiträge:
    358
    Ort:
    Düsseldorf
    Zustimmungen:
    0
    Kekse:
    12
    Erstellt: 22.03.06   #4
    thx, guter tipp. ich hab jetzt leider nicht die zeit, mir das ausführlich anzuschaun. da is noch ne frage: wie zur hölle greift man das? was ist das überhaupt? sind das diese slash-cords?

    -|---------------------------------|----------------------------------|-------
    -|---------------------------------|----------------------------------|-------
    -|-9-9-------------7-7-------------|-5-5-------------4-4-----7-7------|-------
    -|-9-9-------------7-7-------------|-5-5-------------4-4-----7-7------|-------
    -|-7-7-------------5-5-------------|-3-3-------------2-2-----5-5------|-------
    -|-7-7-------------5-5-------------|-3-3-------------2-2-----5-5------|-------
    1 e + a 2 e + a 3 e + a 4 e + a 1 e + a 2 e + a 3 e + a 4 e + a <-Riff 1
     
  5. msoada

    msoada Mod Emeritus Ex-Moderator

    Im Board seit:
    08.05.05
    Zuletzt hier:
    21.09.15
    Beiträge:
    4.498
    Ort:
    Belgrad
    Zustimmungen:
    62
    Kekse:
    5.984
    Erstellt: 22.03.06   #5
    Da legst du deinen zeigefinger einfach als Barre in dem jeweiligen Bund und greifst mit dem kleinen und dem Ring finger die z.B. 9.

    das sind normale Powerchords auf der A Seite mit dem jeweilgen Ton auf der E Seite dazu.(Terz?)
     
  6. Snowball

    Snowball Threadersteller Registrierter Benutzer

    Im Board seit:
    13.11.05
    Zuletzt hier:
    4.05.07
    Beiträge:
    358
    Ort:
    Düsseldorf
    Zustimmungen:
    0
    Kekse:
    12
    Erstellt: 22.03.06   #6
    hooops an barres hab ich gar nicht gedacht. thx!
     
  7. !nsane

    !nsane Gesperrter Benutzer

    Im Board seit:
    10.09.03
    Zuletzt hier:
    3.04.12
    Beiträge:
    233
    Ort:
    Heilbronn
    Zustimmungen:
    0
    Kekse:
    79
    Erstellt: 22.03.06   #7
    im drop d tuning wären das dann aber sus4 akkorde(...glaub ich)
     
Die Seite wird geladen...

mapping