Übungen-Thread

von Solo.Machine, 20.05.04.

  1. Solo.Machine

    Solo.Machine Registrierter Benutzer

    Im Board seit:
    16.03.04
    Zuletzt hier:
    21.11.05
    Beiträge:
    959
    Ort:
    Karben
    Zustimmungen:
    2
    Kekse:
    10
    Erstellt: 20.05.04   #1
    Hi
    Wegen den ständigen Fragen:
    "Was für Übungen kann ich für das und dies machen??"
    hab ich mal einen Tread aufgemacht in die jeder Übungen reinschreiben soll und dazuschreiben soll für was das ist und bisschen erklären usw

    Also ich fang mal an:
    E-----------------------------------------------------1-2-3-4-----------B-------------------------------------------1-2-3-4-----------1-2-3-4--
    G---------------------------------1-2-3-4-------------------------------
    D-----------------------1-2-3-4-----------------------------------------
    A-------------1-2-3-4---------------------------------------------------
    E---1-2-3-4-------------------------------------------------------------

    Dann in verschiedene Lagen verschieben (z.B 2-3-4-5 oder 8-9-10-11)

    E-----------------------------------------------------4-3-2-1-----------
    B-------------------------------------------4-3-2-1-----------4-3-2-1---
    G---------------------------------4-3-2-1-------------------------------
    D-----------------------4-3-2-1-----------------------------------------
    A-------------4-3-2-1---------------------------------------------------
    E---4-3-2-1--------------------------------------------------------------

    Dann wieder in verschiedene Lagen verschieben (z.B 5-4-3-2 oder 11-10-9-8)

    E------------------------------------------------------1-3-2-4-----------
    B-------------------------------------------1-3-2-4------------1-3-2-4---
    G---------------------------------1-3-2-4--------------------------------
    D-----------------------1-3-2-4------------------------------------------
    A------------1-3-2-4-----------------------------------------------------
    E--1-3-2-4----------------------------------------------------------------

    Wieder wie bei den beiden Oberen und verschieden Variationen (z.B 3-2-1-4 oder 2-4-1-3)

    So das reicht erst mal fürs erste

    Und jetzt seit ihr dran !!!
     
  2. RAGMAN

    RAGMAN Mod Emeritus - Gitarren Ex-Moderator

    Im Board seit:
    19.08.03
    Zuletzt hier:
    31.08.13
    Beiträge:
    5.410
    Ort:
    zu Hause...
    Zustimmungen:
    12
    Kekse:
    2.538
    Erstellt: 20.05.04   #2
    Code:
    E-----------------------------
    B-----------------------------
    G4--4--1--1--4--4--1--1------
    D3--2--2--3--3--2--2--3------
    A2--3--3--2--2--3--3--2------
    E1--1--4--4--1--1--4--4------

    Code:
    E-------------
    B-------------
    G8--8--5--5--
    D7--6--6--7--
    A6--7--7--6--
    E5--5--8--8--


    Code:
    E8--8--5--5--
    B-------------
    G7--6--6--7--
    D6--7--7--6--
    A-------------
    E5--5--8--8--

    und schön sauber greifen und mit Metronom wechseln!
     
  3. Comrade

    Comrade Registrierter Benutzer

    Im Board seit:
    19.02.04
    Zuletzt hier:
    4.01.14
    Beiträge:
    1.894
    Ort:
    Ingolstadt
    Zustimmungen:
    2
    Kekse:
    276
    Erstellt: 20.05.04   #3

    Das sind mal coole Übngen...es wird eh viel zu wenig fürs Akkordspiel getan ...
     
  4. Solo.Machine

    Solo.Machine Threadersteller Registrierter Benutzer

    Im Board seit:
    16.03.04
    Zuletzt hier:
    21.11.05
    Beiträge:
    959
    Ort:
    Karben
    Zustimmungen:
    2
    Kekse:
    10
    Erstellt: 20.05.04   #4
    sind doch ganz normale spinnen oder?
     
  5. nike_esp

    nike_esp Registrierter Benutzer

    Im Board seit:
    30.04.04
    Zuletzt hier:
    29.04.13
    Beiträge:
    3.054
    Zustimmungen:
    1
    Kekse:
    414
    Erstellt: 20.05.04   #5
    danke die Übungen sind echt gut !
     
  6. Runner

    Runner Registrierter Benutzer

    Im Board seit:
    23.08.03
    Zuletzt hier:
    22.11.15
    Beiträge:
    296
    Ort:
    Bielefeld
    Zustimmungen:
    10
    Kekse:
    419
    Erstellt: 21.05.04   #6
    Sind die nicht etwas abgewandelt aus John Petrucci's "Rock Discipline"?
     
  7. RAGMAN

    RAGMAN Mod Emeritus - Gitarren Ex-Moderator

    Im Board seit:
    19.08.03
    Zuletzt hier:
    31.08.13
    Beiträge:
    5.410
    Ort:
    zu Hause...
    Zustimmungen:
    12
    Kekse:
    2.538
    Erstellt: 21.05.04   #7

    Yo, der hat diese Übung, Satriani auch, uva.

    Mein Gitarrenleher hat sie mir vor etlichen Jahren mal gezeigt..

    RAGMAN
     
Die Seite wird geladen...

mapping