Ugly Kid Joe - Cats In A Cradle <- Suche vollständige, gute Tabs

  • Ersteller Oliver_
  • Erstellt am
Oliver_
Oliver_
Registrierter Benutzer
Zuletzt hier
29.11.20
Registriert
15.04.05
Beiträge
2.751
Kekse
2.829
Ort
Frankfurt am Main
Was ich bisher im I-Net gefunden haben, ist nicht gerade das Gelbe vom Ei. Habe zwar ganz gute Tabs im GP4-Format, aber diese lassen sich nicht gut gegliedert extrahieren :/ Hab schonmal versucht die Tabs mit Aufbau etc da rauszuschreiben, aber nach rund 20 Minuten Arbeit und 20% fertig hatte ich keine Lust mehr...

Hat jemand 'fleischt was gutes?
 
Eigenschaft
 
d'Averc
d'Averc
Mod Emeritus
Ex-Moderator
HFU
Zuletzt hier
08.12.16
Registriert
23.07.04
Beiträge
16.267
Kekse
54.560
Ort
Elbeweserland
zu cats in the cradle von UGJ sind keine vernünftigen tabs in den gängigen archiven zu finden (soweit tabs vernünftig sein können;)):confused:?
 
Oliver_
Oliver_
Registrierter Benutzer
Zuletzt hier
29.11.20
Registriert
15.04.05
Beiträge
2.751
Kekse
2.829
Ort
Frankfurt am Main
Njarg, jetzt schreib ichs schon selbst falsch... Steht auf vielen Seiten mit nem 'A', statt nem 'The'...
Kann vielleicht ja sein, dass jemand schonmal das gleiche Problem gehabt hat und sichs dann selbst getabbed hat... und mir die Tabs dann geben könnte :D
 
Oliver_
Oliver_
Registrierter Benutzer
Zuletzt hier
29.11.20
Registriert
15.04.05
Beiträge
2.751
Kekse
2.829
Ort
Frankfurt am Main
Naja, ich mach hier mal ne Tab-Werkstatt für das Lied auf :D
Über Hilfe würd ich mich freuen ;)

Bisher hab ich das Intro, den ersten Verse und den Pre-Chorus. Stimmt fast in den Tabs die ich hatte...

Code:
Intro (0:00)
G|------------------------------------------|
D|-------------------------------------5----|
A|--------------7-5-----------------5-----7-|
E|-0--0--0--0-------7-6-5--3-0--------------|


Verse (No Bass)


Pre-Chorus (0:24)
G|---------------------------0--------|
D|-----------------------------4-2----|
A|--5--4--2--0------------------------|
E|--------------3--2--0----0----------|


Chorus (0:35)
G|------4-1-----------------------4----------------------------|
D|-------------------------------------------------------------|
A|----------5---5-----------5-------2-2-5----------------------|
E|--0-0-----------3---3-5-----0-0-----------3-2-2-0--3-2-0-----|

Pre-Verse (0:51)
G|----------------------|
D|----------------------|
A|------------2---------|
E|---0-0-0--0---0-4-0---|

Verse (0:58)
G|------------------------------------------------------------|
D|--------------------------2---------------------------------|
A|-----2-----------2-5------------2-----2-5--------2-----2----|
E|---0---0-0---0-3-----5--3---5-4---0-3------5/7\5---0-0------|

Pre-Chorus (1:11)
G|---------------------------|
D|----------------------2----|
A|--5-4-2-0---------------2--|
E|----------3-2-0--0-3/4-----|

Chorus (1:22)
G|------4-------------------------------------4---------------------------------------------|
D|---------------------------------------------------------------------------2--------------|
A|--------2-5-5-5-5/7----------------------------5-5-5-5-5/7-------------------2------------|
E|--0-0---------------3-3-3-3-5-5-5-5/7---0-0--0---------------3-2-2-0-0-3-4-----4-0-3-2-2--|

Pre-Verse (1:36)
G|----------------------|
D|----------------------|
A|------------2---------|
E|---0-0-0--0---0-4-0---|

Erbitte Korrigierungen...
Choruse und Verse kommen mir komisch vor :D




Edit:
Ein weiteres mal frustriert :| Ich gebs wieder auf...
 
E
EddyK
Registrierter Benutzer
Zuletzt hier
24.10.09
Registriert
09.05.05
Beiträge
144
Kekse
300
Ort
Hamburg
Was Du da getabbt hast, sieht teilweise wirklich etwas merkwürdig aus (und klingt auch so...)

Würd mal was in der folgenden Richtung vorschlagen (das ganze wird vom UKJ Bassisten übrigens auf einem 8-Saiter gespielt, aber das macht für die Tabs ja keinen Unterschied):

Intro (0:00)
G|---|----|---|---|97--------|--------|-----------|
D|---|----|---|---|---987----|--------|----------|
A|---|----|---|---|--------10-|-7---9-|-7---------|
E|-0-|-0-|-0-|-0-|-----------|--10---|-----------|


Verse (No Bass)


Pre-Chorus (0:24)
G|--------|-----------|------|--------|-------|----|
D|--------|-----------|------|--------|-------|----|
A|--5--4-|-----------|------|-----9-|-10-9-|-7--|
E|--------|-7--5-(0)-|-3--2-|-0-----|-------|----|


Chorus (0:35)
G|-------------|------------|-----------|----------|-----------|-----------|------------|--------|--------|
D|-------------|------------|-5--5-----|-7-7-----|-----------|------------|------------|--------|--------|
A|-------------|-5-5-55-7-|------757-|------45-|-7---7-7--|-5-5-5-57-|-10--9--5-|-7--5---|-------|
E|--0-0-0-35-|------------|-----------|----------|----0----7-|------------|-----------|------7-|-3--2--|

G|-----|----|---|-------------|----------|
D|-----|----|---|-------------|----------|
A|-----|----|---|------57----|-----7----|
E|---0-|-0-|-0-|-(0)----57x-|-0---5-7-|

Verse (0:58)
G|---------|--------|-------|-------|-------|-------|--------|--------|
D|---------|--------|-------|-------|-------|-5-79-|-7-----|---------|
A|---------|--------|-------|-7-----|-7--7-|-------|----45-|-7--7---|
E|---0--2-|-3--34-|-5--0-|-----7-|-------|-------|--------|------7-|


usw. mit leichten Variationen
 

Ähnliche Themen


Unser weiteres Online-Angebot:
Bassic.de · Deejayforum.de · Sequencer.de · Clavio.de · Guitarworld.de · Recording.de

Musiker-Board Logo
Oben