Welche Finger - Solo Machine Head

M
Mixter
Registrierter Benutzer
Zuletzt hier
17.09.05
Registriert
09.06.04
Beiträge
13
Kekse
0
Machine Head - Descend the shades of night Solo

|--8-6-5---5--------8-6h8p6-5---5--------|
|--------8---8-6-5-------------8---8-6-5--|
|------------------------------------------|
|------------------------------------------|
|------------------------------------------|
|------------------------------------------|

Mit welchen 2 Finger würdet ihr diesen Triller spielen? Mit dem Ringfinder und dem Kleinen bin ich zu langsam oder besser gesagt der Kleine is zu schwach ;)
 
Eigenschaft
 
K
kusi
Registrierter Benutzer
Zuletzt hier
21.09.21
Registriert
19.08.03
Beiträge
1.769
Kekse
2.262
Ort
schweizz
hi

alle 5er mit dem zeig, die 6er mit dem mittel und die 8er mit dem kleinen. wenn du zuwenig kraft hast, übs ein bisschen, das schadet nie...... ;)


mfg kusi
 
M
Mixter
Registrierter Benutzer
Zuletzt hier
17.09.05
Registriert
09.06.04
Beiträge
13
Kekse
0
danke so hab ich es ja versucht und hab aber nun nene neue möglichkeit gefunden
der erste teil wie gesagt und der pull off teil mit dem ring und zeigefinder
 
K
kusi
Registrierter Benutzer
Zuletzt hier
21.09.21
Registriert
19.08.03
Beiträge
1.769
Kekse
2.262
Ort
schweizz
hm, ich würds nicht so machen, ich würde jedem finger einen bund zuordnen!
(z=5, m=6, r= 7, k=8)

tipps zur kraft übung der einzelnen finger:

e:-------------------------5h6--6p5--------------------
b:---------------------5h6-----------6p5-------------
g:------------------5h6------------------6p5---------
d::-------------5h6--------------------------6p5-------
a:---------5h6----------------------------------6p5-----
e:-----5h6------------------------------------------6p5--

das mit allen möglichen fingerkombinationen, auch grössere abstände trainieren 5h7, 1h6 (z/k)....

einfach die phantasie gebrauchen und effektive übungen erfinden! ;)

mfg kusi
 
M
Mixter
Registrierter Benutzer
Zuletzt hier
17.09.05
Registriert
09.06.04
Beiträge
13
Kekse
0
danke

ok muss ich wohl weiter üben :rock:
 
K
kusi
Registrierter Benutzer
Zuletzt hier
21.09.21
Registriert
19.08.03
Beiträge
1.769
Kekse
2.262
Ort
schweizz
Mixter schrieb:
danke

ok muss ich wohl weiter üben :rock:


cool, endlich mal einer mit der richtigen einstellung :D weiter so!

mfg
 

Ähnliche Themen


Neue Themen

Unser weiteres Online-Angebot:
Bassic.de · Deejayforum.de · Sequencer.de · Clavio.de · Guitarworld.de · Recording.de

Musiker-Board Logo
Oben