Wer weiss die Warriors of the World Cleanpart Akkorde?

  • Ersteller XenoTron
  • Erstellt am
XenoTron
XenoTron
Registrierter Benutzer
Zuletzt hier
10.02.21
Registriert
19.11.06
Beiträge
1.673
Kekse
5.567
Ort
Dillenburg/Hessen
Ich suche für den Cleanen Part von Warriors of the World die Akkorde. Sämtliche Tabs die es irgendwo gibt und ich finden konnte sind fehlerhaft und haben nichtmal annähernd was mit dem Orginalsong zu tun.

Es wird nur überall ein Guitar Pro Tab verbreitet, welches einfach nicht stimmt.

Wer spielt den Song und kann helfen?

mfg
 
Eigenschaft
 
XenoTron
XenoTron
Registrierter Benutzer
Zuletzt hier
10.02.21
Registriert
19.11.06
Beiträge
1.673
Kekse
5.567
Ort
Dillenburg/Hessen
OK habs rausgefunden und für alle die nicht dumm sterben wollen:
Tuning: Standard D.


Am E Am E Dm E Am E A# F Cm Gm

D||--2----2----2----2----|--0----2----2----2----|--0----3----1----0----|
A||--3----2----3----2----|--0----2----3----2----|--1----0----3----1----|
F||--4----3----4----3----|--0----3----4----3----|--0----0----2----2----|
C||--4----4----4----4----|--2----4----4----4----|--2----0----0----2----|
G||--2----4----2----4----|--2----4----2----4----|--3----2---------0----|
D||-------2---------2----|--0----2---------2----|-------3--------------|


Cm Gm C

--1----0----2----||
--3----1----3----||
--2----2----2----||
--0----2----0----||
-------0---------||
-----------------||
 

Ähnliche Themen


Neue Themen

Unser weiteres Online-Angebot:
Bassic.de · Deejayforum.de · Sequencer.de · Clavio.de · Guitarworld.de · Recording.de

Musiker-Board Logo
Oben