Wie endet diese TAB??

von davefriends04, 28.06.05.

  1. davefriends04

    davefriends04 Registrierter Benutzer

    Im Board seit:
    15.03.05
    Zuletzt hier:
    13.01.08
    Beiträge:
    204
    Zustimmungen:
    0
    Kekse:
    10
    Erstellt: 28.06.05   #1
    Is' nur'n kleines Ding:


    e|---0-----0-----0-----0----------------|
    b|-5---5-3---3-2---2-1---1-0------------|
    G|--------------------------------------|
    D|--------------------------------------|
    A|--------------------------------------|
    E|--------------------------------------|


    wenn mich mein inneres Gehör nicht täuscht, kommen da jetzt zwei Akkorde hinter, aber wer weiß...

    wisst ihr wie's weiter geht / gehen könnte??
     
  2. Domo

    Domo Helpful & Friendly User HFU

    Im Board seit:
    31.08.03
    Zuletzt hier:
    20.09.16
    Beiträge:
    10.963
    Zustimmungen:
    77
    Kekse:
    13.607
    Erstellt: 28.06.05   #2
    vorschlag:

    e|---0-----0-----0-----0----------------|
    b|-5---5-3---3-2---2-1---1-0----3--2---|
    G|-------------------------------3--2---|
    D|-------------------------------2--1---|
    A|-------------------------------3--2---|
    E|--------------------------------------|
     
  3. gitarrensüchtler

    gitarrensüchtler Registrierter Benutzer

    Im Board seit:
    27.12.04
    Zuletzt hier:
    27.05.16
    Beiträge:
    426
    Ort:
    Salzburg/ Österreich
    Zustimmungen:
    0
    Kekse:
    173
    Erstellt: 28.06.05   #3
    anderer vorschlag:

    e|---0-----0-----0-----0------------0----|
    b|-5---5-3---3-2---2-1---1-0-2-4----------|und von vorne
    G|--------------------------------------|
    D|--------------------------------------|
    A|--------------------------------------|
    E|--------------------------------------|
     
  4. Stringgod

    Stringgod HCA Gitarre HCA

    Im Board seit:
    31.08.04
    Zuletzt hier:
    30.12.14
    Beiträge:
    2.111
    Ort:
    Essen
    Zustimmungen:
    4
    Kekse:
    2.130
    Erstellt: 28.06.05   #4
    Oder:

    e|---0-----0-----0-----0----------------|
    b|-5---5-3---3-2---2-1---1-0-----8--8---|
    G|-------------------------------8--7---|
    D|-------------------------------7--6---|
    A|-------------------------------8--7---|
    E|--------------------------------------|
     
  5. Domo

    Domo Helpful & Friendly User HFU

    Im Board seit:
    31.08.03
    Zuletzt hier:
    20.09.16
    Beiträge:
    10.963
    Zustimmungen:
    77
    Kekse:
    13.607
    Erstellt: 28.06.05   #5
    ich würde den letzten akkord eher so spielen:

    b|7
    G|7
    D|6
    A|7

    dann ist es n perfektes blues-ending :D

    (und meine version kann man dazu übrigens prima als turnover verwenden... :D)
     
  6. Stringgod

    Stringgod HCA Gitarre HCA

    Im Board seit:
    31.08.04
    Zuletzt hier:
    30.12.14
    Beiträge:
    2.111
    Ort:
    Essen
    Zustimmungen:
    4
    Kekse:
    2.130
    Erstellt: 28.06.05   #6
    So find ich's langweilig. #9 kommt immer besser. :D
     
  7. davefriends04

    davefriends04 Threadersteller Registrierter Benutzer

    Im Board seit:
    15.03.05
    Zuletzt hier:
    13.01.08
    Beiträge:
    204
    Zustimmungen:
    0
    Kekse:
    10
    Erstellt: 28.06.05   #7
    Danke! Sind schon alles gute Vorschläge, nur leider nicht das, was ich suche ;)

    Das, was ich im Kopf hat, hat 'ne starke Schlusswirkung, bei BlackZs Vorschlag klingt das noch ziemlich offen, Stringgods ist schon geschlossener, aber noch nicht richtig. Ich weiß, ich erklär's nicht gerade super ;) aber vielleicht fällt euch ja noch was ein??
     
  8. SugarDaddy

    SugarDaddy Registrierter Benutzer

    Im Board seit:
    27.04.05
    Zuletzt hier:
    2.10.11
    Beiträge:
    43
    Zustimmungen:
    3
    Kekse:
    68
    Erstellt: 28.06.05   #8
    evtl. so (zwar net 2 Akkorde, aber mim banding klingts auch cool^^)

    e|---0-----0-----0-----0----------------|
    b|-5---5-3---3-2---2-1---1-0------------|
    G|----------------------------4^5^4---2-|
    D|------------------------------------2-|
    A|------------------------------------0-|
    E|--------------------------------------|
     
  9. Hans_3

    Hans_3 High Competence Award HCA

    Im Board seit:
    09.11.03
    Beiträge:
    16.149
    Zustimmungen:
    1.124
    Kekse:
    49.622
    Erstellt: 29.06.05   #9
    Vielleicht sucht der Herr ja einen Abschluss mit

    F6/9--E b5/6/9

    ---------6---------------------------
    8-------7--------------------------
    7-------6----------------------------
    7-------6-------------------------
    8-------7-------------------------
    --------0-----------------------------

    :D
     
  10. davefriends04

    davefriends04 Threadersteller Registrierter Benutzer

    Im Board seit:
    15.03.05
    Zuletzt hier:
    13.01.08
    Beiträge:
    204
    Zustimmungen:
    0
    Kekse:
    10
    Erstellt: 29.06.05   #10
    Danke! :) Entweder hab ich einen Schaden im Ohr, oder irgendwie, also ich weiß nich, aber irgendwie fehlt da die Schlusswirkung, oder nich?
     
  11. Honkman69

    Honkman69 Registrierter Benutzer

    Im Board seit:
    15.06.04
    Zuletzt hier:
    2.08.12
    Beiträge:
    71
    Zustimmungen:
    0
    Kekse:
    16
    Erstellt: 29.06.05   #11
    Ich persönlich würde mit...

    F# E
    -------
    -------
    -11---9
    -11---9
    -9----7
    -------

    ...das ganze beenden.
     
  12. 123

    123 Registrierter Benutzer

    Im Board seit:
    12.04.04
    Zuletzt hier:
    21.09.13
    Beiträge:
    415
    Zustimmungen:
    1
    Kekse:
    115
    Erstellt: 29.06.05   #12
    Ich gebe mal auch meinen Senf dazu :D :
    wat einfaches


    e--0-0-0---0-----0-----0------0--0-----------
    b--------3---3-2---2-1---1-0--0--0---------
    g-----------------------------------1--0----
    D-----------------------------------0-----2--
    A-----------------------------------------2--
    E-----------------------------------------0


    Ne, die haben alle eine gute Schlusswirkung. Du musst schon genauer sagen, was du für einen Schluss willst :)


    EDIT: Ich hab an meinem kleinen Schluss rumgewerkelt und da ergeben sich so viele Möglichkeiten, schau mal, dass du ein bisschen rumprobierst an den Sachen, die hier gepostest wurden.

    EDIT 2: Mit Anhang, weiß allerdings nicht, wie du das rhytmisch spielen willst
     
Die Seite wird geladen...

mapping