Wie wird's gepielt ???

von da-Lenz, 18.05.08.

  1. da-Lenz

    da-Lenz Registrierter Benutzer

    Im Board seit:
    18.05.08
    Zuletzt hier:
    18.05.08
    Beiträge:
    3
    Zustimmungen:
    0
    Kekse:
    10
    Erstellt: 18.05.08   #1
    Kan mir jemand den Teil des Intro von dem Lied herausschreiben ???
    Dieser teil steht nicht im Songbook, weil er leider nur live gespielt wurde !!

    Hier der Link: http://www.youtube.com/watch?v=JZ9piaFfgAA

    Der Teil beginnt bei 00:38 bis 00:47

    Es ist aber schwer herauszuhören! :(

    Schon mal danke im voraus !!! :)

    Gruß Lenz
     
  2. bluesriot

    bluesriot Gesperrter Benutzer

    Im Board seit:
    24.10.07
    Zuletzt hier:
    28.09.09
    Beiträge:
    374
    Ort:
    Utopia
    Zustimmungen:
    0
    Kekse:
    423
    Erstellt: 18.05.08   #2
  3. iron_net

    iron_net Registrierter Benutzer

    Im Board seit:
    17.07.04
    Zuletzt hier:
    27.11.16
    Beiträge:
    1.624
    Ort:
    Offenbach
    Zustimmungen:
    11
    Kekse:
    1.060
    Erstellt: 18.05.08   #3
    |-------------------------|
    |----------8-7-3s5s3s5-|
    |-4r2b4-----------------|
    |-------------------------|
    |-------------------------|
    |-------------------------|

    hör ich da....
     
  4. hardrockschlumpf

    hardrockschlumpf Registrierter Benutzer

    Im Board seit:
    22.11.07
    Zuletzt hier:
    15.06.15
    Beiträge:
    967
    Ort:
    Gräfenhainichen
    Zustimmungen:
    4
    Kekse:
    19.491
  5. da-Lenz

    da-Lenz Threadersteller Registrierter Benutzer

    Im Board seit:
    18.05.08
    Zuletzt hier:
    18.05.08
    Beiträge:
    3
    Zustimmungen:
    0
    Kekse:
    10
    Erstellt: 18.05.08   #5
    danke
    das geht soweit hin !!!

    aber da fehlen noch 2 töne, die sind aber sehr schwer zu hören.

    ich meine das es so geht, bin mir aber nicht sicher!?

    |--------------0-3-2------------|
    |---------------------3s5s3s5--|
    |-4r2b4----0-------------------|
    |--------------------------------|
    |--------------------------------|
    |--------------------------------|

    oder so:

    |--------------2-3-2------------|
    |---------------------3s5s3s5--|
    |-4r2b4---0--------------------|
    |--------------------------------|
    |--------------------------------|
    |--------------------------------|
     
  6. da-Lenz

    da-Lenz Threadersteller Registrierter Benutzer

    Im Board seit:
    18.05.08
    Zuletzt hier:
    18.05.08
    Beiträge:
    3
    Zustimmungen:
    0
    Kekse:
    10
Die Seite wird geladen...

mapping