Blink 182 - Adam's Song

von Taker, 08.03.06.

  1. Taker

    Taker Registrierter Benutzer

    Im Board seit:
    10.12.05
    Zuletzt hier:
    14.08.08
    Beiträge:
    35
    Ort:
    nähe Kassel
    Zustimmungen:
    0
    Kekse:
    10
    Erstellt: 08.03.06   #1
    Hi, wir haben demnächst auf ner Schulveranstaltung einen Auftritt (jede Klasse führt quasi was vor) und wir spielen den Adam's Song von Blink... klappt soweit auch ganz gut, hört sich halt eigtl wie das original an (Also Gitarre, Bass und Drums), außer in dem Zwischenteil wo die Drums und Bass dann allein sind und das Klavier "untermalen". laut den Tabs (sihe unten) soll ich da ja auch ne bestimmte Line spielen, allerdings passt das irgednwie nicht, und selbst wenn ich total schnell spiele krieg ich die AnZahl wie oft ich das spielen soll nicht hin (und ich kann ja net schneller spielen als die Drums, sonst hört sich das ja unschön an) und ich muss ja wenn die Drums in dem Teil sind wo sie spielen und kurzzeitig immer härter werden und wieder weicher und wieder härter auch mit den Drums gehen und sanfter/härter spielen bis der Chorus wieder anfängt...

    Kann mir da jemand vielleicht helfen? Also Problem liegt in der "Bridge" wie es in den Tabs genannt wird...



    Verse (Bass comes in at 00:14)
    G|--------------------------------------------------------------------------|
    D|--------------------------------------------------------------------------| 2x
    A|-33333333----------00000000----------33333333----------00000000-----------|
    E|----------11111111----------11111111----------11111111----------11111111--|

    Pre-Chorus
    G|-------|
    D|-------| 1x
    A|-3~~~--|
    E|-------|

    Pre-Chorus Cont.
    G|--------------------------------------|
    D|--------------------------------------| 1x
    A|-33333333-55555555-00000000-----------|
    E|----------------------------11111111--|

    Chorus (I never conquered...)
    G|--------------------------------------------------------------------------|
    D|--------------------------------------------------------------------------| 2x
    A|-33333333-55555555-00000000----------33333333-55555555-00000000-----------|
    E|----------------------------11111111----------------------------11111111--|

    Post-Chorus
    G|-------|
    D|-------| 1x
    A|-------|
    E|-5>>>--|

    Verse
    G|--------------------------------------------------------------------------|
    D|--------------------------------------------------------------------------| 2x
    A|-33333333----------00000000----------33333333----------00000000-----------|
    E|----------11111111----------11111111----------11111111----------11111111--|

    Pre-Chorus
    G|-------|
    D|-------| 1x
    A|-3~~~--|
    E|-------|

    Pre-Chorus Cont.
    G|--------------------------------------|
    D|--------------------------------------| 1x
    A|-33333333-55555555-00000000-----------|
    E|----------------------------11111111--|

    Chorus (I never conquered...)
    G|--------------------------------------------------------------------------|
    D|--------------------------------------------------------------------------| 2x
    A|-33333333-55555555-00000000----------33333333-55555555-00000000-----------|
    E|----------------------------11111111----------------------------11111111--|

    Bridge
    G|----------------------5-----5---5------7-----7---7------5-----5---5--|
    D|-----5-----5---5--3-3---3-3---3----5-5---5-5---5----3-3---3-3---3----| 1x
    A|-3-3---3-3---3-------------------------------------------------------|
    E|---------------------------------------------------------------------|

    G|----------------------5-----5---5------7-----7---7------9-------5----|
    D|-----5-----5---5--3-3---3-3---3----5-5---5-5---5----7-7---7-3-3---3--| 1x
    A|-3-3---3-3---3-------------------------------------------------------|
    E|---------------------------------------------------------------------|

    G|----------------------5-----5---5------7-----7---7------5-----5---5--|
    D|-----5-----5---5--3-3---3-3---3----5-5---5-5---5----3-3---3-3---3----| 1x
    A|-3-3---3-3---3-------------------------------------------------------|
    E|---------------------------------------------------------------------|

    G|----------------------5-----5---5------7-----7---7------9-------5----|
    D|-----5-----5---5--3-3---3-3---3----5-5---5-5---5----7-7---7-3-3---3--| 1x
    A|-3-3---3-3---3-------------------------------------------------------|
    E|---------------------------------------------------------------------|

    G|---------------------------------------------------------------------|
    D|---------------------------------------------------------------------| 1x (Gradually hit strings harder,
    A|-3-3-3-3-3-3-3-3--3-3-3-3-3-3-3-3--3-3-3-3-3-3-3-3--3-3-3-3-3-3-3-3--| they go along with the drums)
    E|---------------------------------------------------------------------|

    G|----------------------5-----5---5------7-----7---7------9-------5----|
    D|-----5-----5---5--3-3---3-3---3----5-5---5-5---5----7-7---7-3-3---3--| 1x
    A|-3-3---3-3---3-------------------------------------------------------|
    E|---------------------------------------------------------------------|

    Chorus (I never conquered...)
    G|--------------------------------------------------------------------------|
    D|--------------------------------------------------------------------------| 2x
    A|-33333333-55555555-00000000----------33333333-55555555-00000000-----------|
    E|----------------------------11111111----------------------------11111111--|

    End Note
    G|-------|
    D|-------| 1x
    A|-3~~~--|
    E|-------|
     
  2. GoodYear

    GoodYear Registrierter Benutzer

    Im Board seit:
    20.12.04
    Zuletzt hier:
    17.08.15
    Beiträge:
    1.923
    Ort:
    Köln
    Zustimmungen:
    14
    Kekse:
    2.229
    Erstellt: 08.03.06   #2
    Bridge
    Code:
    G|----------------------5-----5---5------7-----7---7------5-----5---5--|
    D|-----5-----5---5--3-3---3-3---3----5-5---5-5---5----3-3---3-3---3----| 1x
    A|-3-3---3-3---3-------------------------------------------------------|
    E|---------------------------------------------------------------------|
    Hi,
    also das kann ich da nicht raushören, sondern viel einfacher nur auf C, F, G und A. Ich hab's mal mitgespielt und aufgenommen (ich glaube ca. ab 2:30 war's), vielleicht hilft's ja weiter.

    Alle Angaben ohne Gewissen!

    Gruß,

    Goodyear
     

    Anhänge:

  3. Taker

    Taker Threadersteller Registrierter Benutzer

    Im Board seit:
    10.12.05
    Zuletzt hier:
    14.08.08
    Beiträge:
    35
    Ort:
    nähe Kassel
    Zustimmungen:
    0
    Kekse:
    10
    Erstellt: 08.03.06   #3
    Hey, dankeschön :great:

    Das hört sich meiner Meinung nach so an, passt ja auch zum Klavier

    Wie genau spiel ich das jetzt? Wäre dir sehr dankbar wenn du mir das in Tab-Form zeigen könnest :)
     
  4. Oliver_

    Oliver_ Registrierter Benutzer

    Im Board seit:
    15.04.05
    Zuletzt hier:
    23.11.16
    Beiträge:
    2.755
    Ort:
    Frankfurt am Main
    Zustimmungen:
    72
    Kekse:
    2.836
    Erstellt: 08.03.06   #4
    GoodYear kann weder Noten noch Tabs lesen *g*
     
  5. Taker

    Taker Threadersteller Registrierter Benutzer

    Im Board seit:
    10.12.05
    Zuletzt hier:
    14.08.08
    Beiträge:
    35
    Ort:
    nähe Kassel
    Zustimmungen:
    0
    Kekse:
    10
    Erstellt: 08.03.06   #5
    Und was heißt "nur C, F, G und A" dann für mich? ^^
     
  6. Ryknow

    Ryknow Registrierter Benutzer

    Im Board seit:
    18.01.06
    Zuletzt hier:
    18.08.15
    Beiträge:
    4.640
    Ort:
    Zuhause
    Zustimmungen:
    730
    Kekse:
    10.700
    Erstellt: 08.03.06   #6
    gugg doch aufm Stimmgerät...
    also der Tab ist komplett richtig...die Bridge auch...
    wenn du es nicht spielen kannst....
    üben üben üben....nach 3 oder 4 Durchläufen sollte es allerdings klappen...

    C, F, G und A sind halt die Grundtöne

    also die 3, 3, 5, 3
     
  7. GoodYear

    GoodYear Registrierter Benutzer

    Im Board seit:
    20.12.04
    Zuletzt hier:
    17.08.15
    Beiträge:
    1.923
    Ort:
    Köln
    Zustimmungen:
    14
    Kekse:
    2.229
    Erstellt: 08.03.06   #7
    Jaja, lacht ihr nur! :twisted:

    Bei mir geht das halt so:
    Hören - Spielen.

    Bei vielen anderen geht das so:
    Hören - Tabs schreiben - Tabs lesen - Spielen.

    Was ist besser? Aber ihr habt schon Recht, ich werde mir mal das hier zu Gemüte führen müssen :rolleyes:

    Gruß,

    Goodyear
     
  8. Taker

    Taker Threadersteller Registrierter Benutzer

    Im Board seit:
    10.12.05
    Zuletzt hier:
    14.08.08
    Beiträge:
    35
    Ort:
    nähe Kassel
    Zustimmungen:
    0
    Kekse:
    10
    Erstellt: 08.03.06   #8
    Ich habs jetzt hingekriegt, danke nochmal an Goodyear ;)

    Das ganze sollte in Tabs dann etwa so aussehen...

    Code:
    
    Bridge:
    
    G|------------------2---------------------2---------------------|
    D|--------3----5---------------3----5--------3-----------------|
    A|---3---------------------3------------------------------------|
    E|---------------------------------------------------------------|
    
    Das dann 2 oder3 mal, muss ich nochma genau ausprobieren gleich... Jemand was auszusetzen? ^^
    Wenn nicht, änder ich das jetzt so in den Tabs um =)
     
  9. GoodYear

    GoodYear Registrierter Benutzer

    Im Board seit:
    20.12.04
    Zuletzt hier:
    17.08.15
    Beiträge:
    1.923
    Ort:
    Köln
    Zustimmungen:
    14
    Kekse:
    2.229
    Erstellt: 08.03.06   #9
    Ja ich hab was auszusetzen! Der Link in deiner Signatur führt zu ner Fehlermeldung: "ERROR: Product detail not found. Please hit the [Back] button on your browser and try again!"

    Mit welchem Preci are you doing it deeper?
     
  10. Taker

    Taker Threadersteller Registrierter Benutzer

    Im Board seit:
    10.12.05
    Zuletzt hier:
    14.08.08
    Beiträge:
    35
    Ort:
    nähe Kassel
    Zustimmungen:
    0
    Kekse:
    10
    Erstellt: 09.03.06   #10
  11. nookieZ4

    nookieZ4 Registrierter Benutzer

    Im Board seit:
    08.02.06
    Zuletzt hier:
    21.03.13
    Beiträge:
    801
    Ort:
    Münster
    Zustimmungen:
    0
    Kekse:
    857
    Erstellt: 09.03.06   #11
    Mal davon abgesehen, dass der Tab falsch ist, weil das original einen Ton höher gespielt wird,verstehe ich die diskusion grad nicht so....
    Guck am besten mal in das Songbook (falls du die Möglichkeit dazu hast). Dann kannst du nämlich hinhören und sehen, warum das nicht klingt --> da laufen nämlich zwei Basslinien. Eine, die die Grundtöne macht und die andere, die oben schon getabbt wurde (nur halt nen Ton höher). Wenn ihr kein Klavier habt, dann empfehle ich dir, die Grundtöne zu spielen, weil sonst die Stimmung der Bridge kaputt geht. Ansonsten kannst du diese lustigen kleinen Läufe da rein spielen ;)
     
  12. Taker

    Taker Threadersteller Registrierter Benutzer

    Im Board seit:
    10.12.05
    Zuletzt hier:
    14.08.08
    Beiträge:
    35
    Ort:
    nähe Kassel
    Zustimmungen:
    0
    Kekse:
    10
    Erstellt: 09.03.06   #12
    Versteh ich jetz nicht so ganz den letzten Post ^^

    Also wir haben ein Klavier... Wir spielen halt 1er Gitarre, 1er Bass, 1er Drums und nen Mädel spielt das Keyboard/Klavier :o
     
  13. GoodYear

    GoodYear Registrierter Benutzer

    Im Board seit:
    20.12.04
    Zuletzt hier:
    17.08.15
    Beiträge:
    1.923
    Ort:
    Köln
    Zustimmungen:
    14
    Kekse:
    2.229
    Erstellt: 09.03.06   #13
    Also ich höre da einen Bass, ein Drumkit, zwei Gitarren und ein Klavier. Hier, ich hab die Bridge mal angeschnitten. Ich kann mich aber auch täuschen.

    Und von wegen einen Ton höher: Die Tabs stimmen doch! Hast du etwa ein ganz anderes Lied im Ohr? Oder kannst du etwa keine Tabs lesen? Das krieg ja sogar ich hin :D

    Gruß,

    Goodyear
     

    Anhänge:

  14. Ryknow

    Ryknow Registrierter Benutzer

    Im Board seit:
    18.01.06
    Zuletzt hier:
    18.08.15
    Beiträge:
    4.640
    Ort:
    Zuhause
    Zustimmungen:
    730
    Kekse:
    10.700
    Erstellt: 09.03.06   #14
    ich weis überhaupt nicht wo das Problem da liegt....der erste Tab ist total richtig...das ist doch nicht so schwer das zu spielen:er_what: es hat nur n anderen Rhytmus als der rest des liedes....
     
  15. Taker

    Taker Threadersteller Registrierter Benutzer

    Im Board seit:
    10.12.05
    Zuletzt hier:
    14.08.08
    Beiträge:
    35
    Ort:
    nähe Kassel
    Zustimmungen:
    0
    Kekse:
    10
    Erstellt: 10.03.06   #15
    meinst du:
    Code:
    Bridge
    G|----------------------5-----5---5------7-----7---7------5-----5---5--|
    D|-----5-----5---5--3-3---3-3---3----5-5---5-5---5----3-3---3-3---3----| 1x
    A|-3-3---3-3---3-------------------------------------------------------|
    E|---------------------------------------------------------------------|
    
    das soll richtig sein? Das is doch viel zu lang, und passt überhaupt net...

    Also wenn ich das von goodyear spiele (haben heut wieder geprobt, nächsten dienstag is die aufführung) komm ich genau hin und passt auch zum klavier und den drums...
     
  16. Deltafox

    Deltafox Helpful & Friendly User HFU

    Im Board seit:
    11.10.04
    Zuletzt hier:
    3.12.16
    Beiträge:
    7.542
    Zustimmungen:
    589
    Kekse:
    18.405
    Erstellt: 10.03.06   #16
    was soll denn da nicht passen, du hast da doch - genau wie zuvor - 8 Noten pro Takt mit jeweils gleicher Notenlänge. (Achtel)
     
  17. Ryknow

    Ryknow Registrierter Benutzer

    Im Board seit:
    18.01.06
    Zuletzt hier:
    18.08.15
    Beiträge:
    4.640
    Ort:
    Zuhause
    Zustimmungen:
    730
    Kekse:
    10.700
    Erstellt: 10.03.06   #17
    wenn ich wüsste wo ich Dateien hochladen kann, würd ichs dir aufnehmen und hochladen....das ist nicht zu lang...du musst nur schnell spielen...wie auch auf der CD
     
  18. Taker

    Taker Threadersteller Registrierter Benutzer

    Im Board seit:
    10.12.05
    Zuletzt hier:
    14.08.08
    Beiträge:
    35
    Ort:
    nähe Kassel
    Zustimmungen:
    0
    Kekse:
    10
    Erstellt: 11.03.06   #18
    rapidshare.de zB ;)

    hmm ich hab hier sowhl enema of state und greatest hits, (hätt ja sein können das es vllt andere versionen sind oder so), und für mic hört sich der bass eigtl langsam an, anfangs is ja die gitarre noch dabei, die setzt dann aus, klavier kommt dazu und der bass schwebt halt so im hintergrund dazu... :rolleyes:
     
  19. Ryknow

    Ryknow Registrierter Benutzer

    Im Board seit:
    18.01.06
    Zuletzt hier:
    18.08.15
    Beiträge:
    4.640
    Ort:
    Zuhause
    Zustimmungen:
    730
    Kekse:
    10.700
    Erstellt: 12.03.06   #19
    kannst vergessen...bin zu blöde ne Bassspur über das Audiofile zu spielen...
    ist immer viel zu leise und klingt verdammt kacke...
     
  20. Taker

    Taker Threadersteller Registrierter Benutzer

    Im Board seit:
    10.12.05
    Zuletzt hier:
    14.08.08
    Beiträge:
    35
    Ort:
    nähe Kassel
    Zustimmungen:
    0
    Kekse:
    10
    Erstellt: 14.03.06   #20
    So, mach mich inner halben Stunde auf den Weg, wir sind zwar erst um 21:30 dran aber will mir den rest mal ankuggn ;)

    Ich werde dann mal berichten wie's so gelaufen is und wie's ankam :o

    (heut morgen bei der Generalprobe is mir aufgefallen das son kleiner 8. Klässler nen Headless Bass hat, denn muss ich gleich erstma anspielen ^^)
     
Die Seite wird geladen...

mapping