tabs? übersetzen?

R

-RAC-

Registrierter Benutzer
Zuletzt hier
09.05.06
Mitglied seit
20.08.04
Beiträge
76
Kekse
0
Ort
döbeln
kann mir jemand "deutlich" machen wie man das spielt :

Intro/Verse:
E|-------------------------------------------------------|
H|-------------------------------------------------------|
G|-------------------------------------------------------|
D|*1010101010101010-55555555-1010101010101010-33333333*--|
A|*-8-8-8-8-8-8-8-8-33333333--8-8-8-8-8-8-8-8-11111111*--|
E|-------------------------------------------------------|

Verse: (Lead-Gitarre)
E|-----------------------------------------|
H|-----------------------------------------|
G|*7-9-11-9-12-11-9-7-7-9-11-9-12-11-9-7*--|
D|-----------------------------------------|
A|-----------------------------------------|
E|-----------------------------------------|


danke
 
RAGMAN

RAGMAN

Mod Emeritus - Gitarren
Ex-Moderator
Zuletzt hier
22.10.17
Mitglied seit
19.08.03
Beiträge
5.402
Kekse
2.528
Ort
zu Hause...
die 6 Striche sind die Gitarrensaiten, Bezeichnung steht jeweils daneben.

Die Zahlen geben den Bund an in dem Du auf der jeweiligen Saite greifen musst.
stehen 2 oder mehr Zahlen übereinander ist es ein Akkord
einzelne Zahlen hintereinander eine Melodie (Lick, Riff...)


RAGMAN
 
Melody Maker

Melody Maker

Registrierter Benutzer
Zuletzt hier
25.12.13
Mitglied seit
27.05.04
Beiträge
1.075
Kekse
397
Ort
Ulm
Die Zahlen stellen die Bünde dar. Oben am Kopf der Gitarre ist der erste Bund. Am ende des Halses/Korpus/Body ist der letzte Bund (meist 21, 22, 24)

Hier n Beispiel: (Nothing else matters von Metallica)

E-------0-----|-------0-----|-------0-----|-------0---7-|
B-----0---0---|-----0---0---|-----0---0---|-----0---0---|
G---0-------0-|---0-------0-|---0-------0-|---0---------|
D-------------|-------------|-------------|-------------|
A-------------|-------------|-------------|-------------|
E-0-----------|-0-----------|-0-----------|-0-----------|



E-7-----------7^0---------|---------7---8---7^8\5---7-5^3\2-----|
B-----0-----------0-------|---------0---0-----------0-------5---|
G---------0-----------0---|-----0-------------------------------|
D-------------------------|-------------------------------------|
A-------------------------|-------------------------------------|
E-0-----------------------|-0-----------------------------------|

Null heist, dass man ohne einen Bund zu drücken spielt.

Hier noch n Beispiel: (Smells like teen spirit von Nirvana)

E-|------------------------------------------------------------|
B-|------------------------------------------------------------|
G-|------------------3--3----------------------------6--6-------|
D-|-3--3-3-X-X--X-X-3--3---X-X---6--6-6---X-X--X-X--6--6-------|
A-|-3--3-3-X-X--X-X-1--1---X-X---6--6-6---X-X--X-X--4--4-------|
E-|-1--1-1-X-X--X-X--------X-X---4--4-4---X-X--X-X-------------|

Einfach zeigefinger auf den 1. Bund, Ring- und den kleinen Finger auf den dritten Bund (nennt sich glaub ich Barree`)

Die XXX bedeuten am Hals mit den Fingern zu blocken.

Ist echt schweineleicht ;)
 
bobs

bobs

Registrierter Benutzer
Zuletzt hier
17.05.11
Mitglied seit
27.05.04
Beiträge
1.059
Kekse
228
Ort
Franken
Ibanezzer schrieb:
Einfach zeigefinger auf den 1. Bund, Ring- und den kleinen Finger auf den dritten Bund (nennt sich glaub ich Barree`)

nein das nennt sich powerchord. barree bedeutet mit einem finger mehrere saiten gleichzeitig runterzudrücken. (wie z.B. beim F)
 
Melody Maker

Melody Maker

Registrierter Benutzer
Zuletzt hier
25.12.13
Mitglied seit
27.05.04
Beiträge
1.075
Kekse
397
Ort
Ulm
Sorry, ich kenn mich halt mit den Fachbegriffen nicht so aus ;)

Ist das dann Barree´:??????


e:--0--7
B:--0--7
G:--1--8
D:--2--9
A:--2--9
E:--0--7
 
Comrade

Comrade

Registrierter Benutzer
Zuletzt hier
04.01.14
Mitglied seit
19.02.04
Beiträge
1.875
Kekse
266
Ort
Ingolstadt
Das zweite schon...das erste is 'n offener Akkord.

Barre heisst das mindestens 2.Saiten mit nur einem Finger runtergedrückt werden...
 

Ähnliche Themen

Unser weiteres Online-Angebot:
Bassic.de · Deejayforum.de · Sequencer.de · Clavio.de · Recording.de

Musiker-Board Logo
Oben