Brauche Hilfe bei "Sympathy" (Billy Talent)

  • Ersteller Imagination972
  • Erstellt am
Imagination972

Imagination972

Registrierter Benutzer
Zuletzt hier
10.02.14
Mitglied seit
31.10.05
Beiträge
147
Kekse
42
Ort
Alsleben (Saale)
Hi Leute,

bis jetzt konnte ich alle guten Billy Talent Songs nach mehr oder weniger längerem Zeitraum bewältigen aber hier hat das wohl dann auch vorerst ein Ende.

Habe schon etliche Varianten von Billy Talent's Sympathy gefunden (Intro jetzt speziell), wobei nicht eines dieser sich auch nur annähernd gut spielen lässt oder sehr gut anhört...


Code:
e|-------|----------------------------6-6-6-6--|-----------------------6--6\--|
B|-------|--8-8-8-8----10-10-10-10----8-8-8-8--|--8-8-8----10-10-10----8--8\--|
G|-------|--8-8-8-8----12-12-12-12----7-7-7-7--|--8-8-8----12-12-12----7--7\--|
D|--10\--|--8-8-8-8----13-13-13-13----5-5-5-5--|--8-8-8----13-13-13----5--5\--|
A|--10\--|--6-6-6-6----10-10-10-10----5-5-5-5--|--6-6-6----10-10-10----5--5\--|
D|--10\--|-------------10-10-10-10----5-5-5-5--|-----------10-10-10----5--5\--|

    H                      H
e|--5----------------1-----3--------------------------------------------------|
B|--6-------3--3-----3-----4--------------------------------------------------|
G|--5-------3--3-----2-----3--------------------------------------------------|
D|--3-------3--3-----0-----1--------------------------------------------------|
A|--3-------1--1-----0-----1--------------------------------------------------|
D|--3----------------0-----1--------------------------------------------------|

oder

Code:
e|----5-5-5-5---6-6-6-6---8-8-8-8---5-5-5-5--5--6--6--8/--------------------|
B|----6-6-6-6---8-8-8-8---9-9-9-9---6-6-6-6--6--8--8--9/--------------------|
G|----5-5-5-5---7-7-7-7---8-8-8-8---5-5-5-5--5--7--7--8/--------------------|
D|--------------------------------------------------------------------------|
A|--------------------------------------------------------------------------|
D|-7/-----------------------------------------------------------------------|

Es klingt einfach nicht so toll (Zweiteres iwie voll daneben ...?) oder lässt sich extrem schwer spielen.
Habt ihr irgendwelche Tipps oder könnt ihr mit Gewissheit sagen, ihr habt irgendwo davon die Tabulatur rumliegen, die am leichtesten für diesen Song zur Hand genommen werden kann?

Danke im Vorraus. :)

P.S.: Raushören habe ich hier noch nicht geschafft.
 
38° im Schatten

38° im Schatten

Registrierter Benutzer
Zuletzt hier
01.11.16
Mitglied seit
27.05.06
Beiträge
501
Kekse
14
Hallo, habs mir in Guitar Pro angeguckt un so klingts meiner Meinung nach richtig.

Code:
E||---------|-------------5-5-5-5----6-6-6-6-|------------5-5-5--6--6--L\--|
B||---------|--8-8-8-8----4-4-4-4----x-x-x-x-|-----8-8-8--4-4-4--x--x------|
G||---------|--x-x-x-x----5-5-5-5----7-7-7-7-|-----x-x-x--5-5-5--7--7--L\--|
D||---------|--8-8-8-8----x-x-x-x----5-5-5-5-|-----8-8-8--x-x-x--5--5--L\--|
A||---------|--6-6-6-6----3-3-3-3----5-5-5-5-|-----6-6-6--3-3-3--5--5--L\--|
D||--13\----|------------------------5-5-5-5-|-------------------5--5--L\--|


                                         
--5----------------------|--3----------------
--4-------3--3-----6-----|--x----------------
--5-------x--x-----x-----|--3----------------
--3-------3--3-----7-----|--1----------------
--3-------1--1-----5-----|--1----------------
--3----------------------|--1----------------
 
Imagination972

Imagination972

Registrierter Benutzer
Zuletzt hier
10.02.14
Mitglied seit
31.10.05
Beiträge
147
Kekse
42
Ort
Alsleben (Saale)
Oder hast das GP-File "sympathy_v2" von Ultimate-Guitar runtergeladen, denn da ist es genauso. xD

Naja, danke trotzdem.

Problem nur, es ist extrem unhandlich zu spielen und daher fragte ich, ob es noch eine einfachere Variante gibt.

Folgender Gitarrist, hat eine extrem (wie es scheint) simple Akkord-Folge, nur leider kann ich es alles nicht so richtig erkennen und so anwenden.

Link!

Kann es jemand notieren?
 
malleus

malleus

Registrierter Benutzer
Zuletzt hier
21.11.20
Mitglied seit
27.09.06
Beiträge
401
Kekse
1.396
Der Typ in dem Video spielt es so, wie 38° im Schatten es vorgeschlagen hat. Er spielt nur zwei Akkorde in einer anderen Lage, daher sieht es so einfach aus ;)

Zum einen benutzt er statt dem links stehenden den rechts stehenden Akkord...
Code:
-------3--
--8----X--
--X----3--
--8----1--
--6-------
----------

...und zum anderen nimmt er hier den rechten Akkord
Code:
-------1--
--6----X--
--X----2--
--7----0--
--5-------
----------
 
Imagination972

Imagination972

Registrierter Benutzer
Zuletzt hier
10.02.14
Mitglied seit
31.10.05
Beiträge
147
Kekse
42
Ort
Alsleben (Saale)
Thx, genau das wollt ich wissen.
Danke dir. :)

Kannst du mir auch die Akkordnamen sagen?

D#, Am, Gm?
 
E

elefant97

Registrierter Benutzer
Zuletzt hier
10.05.16
Mitglied seit
10.01.07
Beiträge
36
Kekse
0
Hi! Ich hab das Billy Talent Songbook :rolleyes: (seeehr Geil) und kann "38° im Schatten's" Aussage nur unterstützen...


Die Akkorde heißen:

Eb, Cm6, Gm | Eb, Cm6, Gm | F7, Bb, Dm | Eb

Gruß elefant97
 

Ähnliche Themen

Neue Themen

Unser weiteres Online-Angebot:
Bassic.de · Deejayforum.de · Sequencer.de · Clavio.de · Recording.de

Musiker-Board Logo
Oben