Children of bodom - In the shadows - Probleme am Ende

von Metal is the law, 21.03.08.

  1. Metal is the law

    Metal is the law Registrierter Benutzer

    Im Board seit:
    17.03.08
    Zuletzt hier:
    24.04.09
    Beiträge:
    38
    Ort:
    Essen City
    Zustimmungen:
    0
    Kekse:
    66
    Erstellt: 21.03.08   #1
    Tag.

    Sitze grad an Children of Bodom's Song "In the Shadows" vom Album "Something wild". Gespielt wird 3 Halbtöne tiefer in C#, ich spiel zwar in D aber das geht eigentich, bis auf den Interlude, ganz gut.

    Nun, eigentlich ist alles soweit klar, man findet ja hinreichend Quellen zu diesem Lied. Aber ein Teil am Ende bekomm ich einfach nicht gescheit rausgehört. Hab bei Guitar Pro schon fast jeden möglichen Ton eingespeist und abspielen lassen, nachgespielt und immer für falsch befunden. Nun benötige ich Hilfe, vielleicht kennt ja jemand die korrekte Lösung. Im Original zu hören von 3:42 bis 4:09.
    Das folgende ist fast zu 99% richtig, nur an einer Stelle (in rot) haperts, den Ton bekomm ich einfach nich raus.
    Habs mal eben abgetippt, weil ich keine passende ausserhalb der Guitar Pro Lösung gefunden hab.
     
  2. Metal is the law

    Metal is the law Threadersteller Registrierter Benutzer

    Im Board seit:
    17.03.08
    Zuletzt hier:
    24.04.09
    Beiträge:
    38
    Ort:
    Essen City
    Zustimmungen:
    0
    Kekse:
    66
    Erstellt: 22.03.08   #2
    Weiss keiner? Oder wollt ihrs mir nicht verraten?:D
     
  3. eternal_hate

    eternal_hate Registrierter Benutzer

    Im Board seit:
    28.12.07
    Zuletzt hier:
    12.05.09
    Beiträge:
    51
    Zustimmungen:
    0
    Kekse:
    10
    Erstellt: 22.03.08   #3
    ^ich setz mich später mal dran...bin im moment am spezialgebiet schreiben...auch über cob :D
     
  4. Metal is the law

    Metal is the law Threadersteller Registrierter Benutzer

    Im Board seit:
    17.03.08
    Zuletzt hier:
    24.04.09
    Beiträge:
    38
    Ort:
    Essen City
    Zustimmungen:
    0
    Kekse:
    66
    Erstellt: 22.03.08   #4
    Super:)

    Sitz jetzt aktuell am Hatebreeder. Auch nich ganz so einfach:D
     
  5. andieymi

    andieymi Registrierter Benutzer

    Im Board seit:
    13.11.07
    Zuletzt hier:
    15.04.12
    Beiträge:
    768
    Zustimmungen:
    24
    Kekse:
    405
    Erstellt: 22.03.08   #5
    Probier den Teil mal so:


    ----------------------------------------------------------|
    ----------------------------------------------------------|
    --14-----------------------------------------------------|
    -------14--15--17--15--14----------14--15--14-------|
    -------------------------------17--17--------------17---|
    ----------------------------------------------------------|

    ich glaube das dürfte stimmen
     
  6. eternal_hate

    eternal_hate Registrierter Benutzer

    Im Board seit:
    28.12.07
    Zuletzt hier:
    12.05.09
    Beiträge:
    51
    Zustimmungen:
    0
    Kekse:
    10
    Erstellt: 23.03.08   #6
    ^so hab ichs auch :D
     
  7. Metal is the law

    Metal is the law Threadersteller Registrierter Benutzer

    Im Board seit:
    17.03.08
    Zuletzt hier:
    24.04.09
    Beiträge:
    38
    Ort:
    Essen City
    Zustimmungen:
    0
    Kekse:
    66
    Erstellt: 23.03.08   #7
    So rein vom optischen her würd ich sagen, is doch nix anderes als das was ich spiel nur eine eine Saite tiefer (bis auf den roten). Ich mein jedenfalls vom Hören is das ein viel höherer Ton als der rote.
    Werds gleich mal testen.

    So ich denk da is mein erstes noch passender. Irgendwie hab ich das Gefühl, dass die 2 (verschiedene) Spuren übereinander gelegt haben fürs Album.
    In jedem Fall is der Ton, den ich suche um einiges höher.
     
  8. Metal is the law

    Metal is the law Threadersteller Registrierter Benutzer

    Im Board seit:
    17.03.08
    Zuletzt hier:
    24.04.09
    Beiträge:
    38
    Ort:
    Essen City
    Zustimmungen:
    0
    Kekse:
    66
    Erstellt: 26.03.08   #8
    Kann sonst keiner meine Meinung teilen?
    Für mich ist der gesuchte Ton auf jedenfall ziemlich hoch.
    Und das in diesem Riff 2 mal hintereinander der selbe Ton gespielt wird ist auch nicht der Fall.
     
  9. Bastard3

    Bastard3 Registrierter Benutzer

    Im Board seit:
    17.03.08
    Zuletzt hier:
    29.11.16
    Beiträge:
    590
    Zustimmungen:
    102
    Kekse:
    1.786
    Erstellt: 26.03.08   #9
    |--------------------------------------------------------------------|
    |--10---------------8---------------------------------------------|
    |----9-10-12-10-9------9-10-9---12----------------------------|
    |-----------------------12--------12---12-14-15-14-12-14-----|
    |--------------------------------------------------------------------|
    |--------------------------------------------------------------------|

    |--------------------------------------------------------------------------------------------|
    |--------------------------------------------------------------------------------------------|
    |--------------------------------------------------------------------------------------------|
    |-10-12-14-12-10-----------------------13------13-------14-14-17-16-14-12-14---|
    |--------------------14-12-14-15-14-12---14-16--16-14------------------------------|
    |--------------------------------------------------------------------------------------------|

    So könnte es vllt. richtig sein, bin mir aber nicht sicher
     
  10. Metal is the law

    Metal is the law Threadersteller Registrierter Benutzer

    Im Board seit:
    17.03.08
    Zuletzt hier:
    24.04.09
    Beiträge:
    38
    Ort:
    Essen City
    Zustimmungen:
    0
    Kekse:
    66
    Erstellt: 27.03.08   #10
    Der ist doch auch niedriger als der anfänglich von mir genannte:)
    Passt auch nicht...
     
  11. Bastard3

    Bastard3 Registrierter Benutzer

    Im Board seit:
    17.03.08
    Zuletzt hier:
    29.11.16
    Beiträge:
    590
    Zustimmungen:
    102
    Kekse:
    1.786
    Erstellt: 27.03.08   #11
    ich habe das lied leider nur in schlechter Qualität gehört und das Lick geht dabei ziemlich unter. Ich versuche mal was besseres zu finden und es dann rauszuhören.
     
Die Seite wird geladen...

mapping