Frage zu longing ( Helloween)

von domi89, 27.08.07.

  1. domi89

    domi89 Registrierter Benutzer

    Im Board seit:
    03.04.07
    Zuletzt hier:
    4.12.16
    Beiträge:
    245
    Zustimmungen:
    0
    Kekse:
    64
    Erstellt: 27.08.07   #1
    Hi , kann mir jemand sagen wie der B Akkord an der Stelle wo er reinslidet gegriffen wird ( die Stelle zwischen Strofe und Refrain)

    ich würd das so spielen:



    e------------------
    h-------7-----------
    g------4---------
    d- sl--4------------
    a---------------
    e-----------------

    klingt aber iwie ziemlich anders als auf cd....

    Edit: hab grad noch bisschen rumprobiert, so klingts glaub eher:

    e---------
    h------7----
    g-----6-----
    d---sl 6-------
    a----------
    e----------
     
  2. Gast 120987345

    Gast 120987345 Gesperrter Benutzer

    Im Board seit:
    18.06.07
    Zuletzt hier:
    22.11.11
    Beiträge:
    165
    Zustimmungen:
    0
    Kekse:
    225
    Erstellt: 27.08.07   #2
    e-------|-----0-----0-----|---------4-------|
    B-------|---0-----0-------|-----------------|
    G-------|-----------------|-------4---------|
    D-------|-----------------|-----6-----------|
    A---4-6-|-7-----6---------|---6---------4-6-|
    E-4-----|-------------7-6-|-4---------4-----|

    e-----0-----0-----|---------4-------||
    B---0-----0-------|-----------------||
    G-----------------|-------4---------||
    D-----------------|-----6-----------||
    A-7-----6---------|---6-------------||
    E-------------7-6-|-4---------------||
     
  3. domi89

    domi89 Threadersteller Registrierter Benutzer

    Im Board seit:
    03.04.07
    Zuletzt hier:
    4.12.16
    Beiträge:
    245
    Zustimmungen:
    0
    Kekse:
    64
    Erstellt: 27.08.07   #3
    das was du gepostet hast ist ja die gezupfte Stelle, die nach der ersten bridge kommt, ich meine aber den angeschlaganenen Teil beim Wechsel von C#m nach B, wie er zwischen erster Strofe und Chorus vorkommt und auch noch in der zweiten Strofe ( " Restless minds have searched , long before..:"), da binn ich mit nich ganz sicher wie der B Akkord, in den Michi reinslidet grgriffen wird, siehe oben
     
  4. Gast 120987345

    Gast 120987345 Gesperrter Benutzer

    Im Board seit:
    18.06.07
    Zuletzt hier:
    22.11.11
    Beiträge:
    165
    Zustimmungen:
    0
    Kekse:
    225
    Erstellt: 27.08.07   #4
    Alter dann geh doch bitte einfach zu ultimate-guitar.com und zieh dir einfach die tabs?!

    Da hab ichs auch her
     
  5. domi89

    domi89 Threadersteller Registrierter Benutzer

    Im Board seit:
    03.04.07
    Zuletzt hier:
    4.12.16
    Beiträge:
    245
    Zustimmungen:
    0
    Kekse:
    64
    Erstellt: 27.08.07   #5
    die habich auch, da stehn allerdings für die Stelle nur die Akkorde drüber und net wie seh gegriffn werden.
     
Die Seite wird geladen...

mapping