Hilfe bei Akkorde raushören

von slugs, 12.02.07.

  1. slugs

    slugs Registrierter Benutzer

    Im Board seit:
    16.11.05
    Zuletzt hier:
    14.02.16
    Beiträge:
    1.513
    Ort:
    Nürnberg
    Zustimmungen:
    13
    Kekse:
    2.398
    Erstellt: 12.02.07   #1
    Hallo,

    ich habe auf meinem PC irgend ne chillige Jazz Nummer gefunden. Aus reinem Interesse, ob ich das kann, habe ich versucht die Akkorde rauszuhören. Ich bin aber noch nicht so besonders gut bei so etwas.
    Hört euch einfach mal dieses Soundfile an und sagt mir, ob meine unten stehende Tabulatur in die richtige Richtung geht, oder ob das ganz andere Akkorde sind. Ich habe jetzt bei der Tabulatur nicht besonders die Rhythmik beachtet, weil das meiner Meinung nach eher ein Song ist bei dem man den Rhythmus fühlt :)
    Also hier geht es letztendlich nur um die Akkorde.

    Code:
         E  E  E  S E.  E  S E.     E  E  E  S E.  E  S E.   
    E||----------------------2---|----------------------2---|
    B||--------2--2-2------x-3---|--------2--2-2------x-3---|
    G||--------2--2-2------x-----|--------2--2-2------x-----|
    D||--------2--2-2------x-----|--------2--2-2------x-----|
    A||--------4--4-4------x-----|--------4--4-4------x-----|
    E||--2--2-----------2--------|--2--2-----------2--------|
    
    
      E  E  E  Q    E  Q       E  E  E  Q    E  Q       E  E  E  Q    E  Q     
    ------------------------|------------------------|------------------------|
    -----6-----6-------6----|-----5-----5-------5----|-----4-----4-------4----|
    -----6-----6-------6----|-----6-----6-------6----|-----4-----4-------4----|
    -----6-----6-------6----|-----6-----6-------6----|-----4-----4-------4----|
    -----8-----8-------8----|-----7-----7-------7----|-----6-----6-------6----|
    --6-------------6-------|--5-------------5-------|--4-------------4-------|
    
    
      S. E  H        E  E  T    
    --------------------------||
    --3-----3--------3--------||
    --4-----4--------4-------*||
    --4-----4--------4-------*||
    --5-----5--------5--------||
    --3-----3--------3--------||
    
    Grüße slugs
     
  2. slugs

    slugs Threadersteller Registrierter Benutzer

    Im Board seit:
    16.11.05
    Zuletzt hier:
    14.02.16
    Beiträge:
    1.513
    Ort:
    Nürnberg
    Zustimmungen:
    13
    Kekse:
    2.398
    Erstellt: 13.02.07   #2
    45 Hits und keiner kann mir helfen? ;)
     
  3. Rockminstrel

    Rockminstrel Registrierter Benutzer

    Im Board seit:
    21.02.06
    Zuletzt hier:
    25.11.12
    Beiträge:
    355
    Ort:
    bei München
    Zustimmungen:
    0
    Kekse:
    88
    Erstellt: 13.02.07   #3
    Ich hab zwar leider momentan keine Zeit zum Raushören, aber ich finde es Hilfreich, wenn man den Grundton raushört und dan einfach ein bisschen probiert.
     
  4. lemming3d

    lemming3d Registrierter Benutzer

    Im Board seit:
    19.06.04
    Zuletzt hier:
    1.08.08
    Beiträge:
    31
    Zustimmungen:
    0
    Kekse:
    10
    Erstellt: 13.02.07   #4
    Also für mich hört sich das ganz gut an, wenn man es in ner gescheiten Rhythmik spielt.

    Nur der H-Moll in den ersten Takten wird glaub ich deutlicher gespielt; mit Grundton oder so. Vllt kommt mir das auch nur wegen dem Bass so vor.

    Aber echt gut rausgehört :great:
     
  5. slugs

    slugs Threadersteller Registrierter Benutzer

    Im Board seit:
    16.11.05
    Zuletzt hier:
    14.02.16
    Beiträge:
    1.513
    Ort:
    Nürnberg
    Zustimmungen:
    13
    Kekse:
    2.398
    Erstellt: 13.02.07   #5

    Das stimmt, so bin ich auch vor gegangen. Blos hab ich bei den Jazz Akkorden noch so meine Probleme :D Aber hier gings ja.

    Danke fürs Kompliment lemming :)
    aber bei diesem H-Moll bin ich mir auch noch nicht so ganz sicher.
     
Die Seite wird geladen...

mapping