Hilfe! Hilfe!

von spark90, 14.04.08.

Status des Themas:
Es sind keine weiteren Antworten möglich.
  1. spark90

    spark90 Registrierter Benutzer

    Im Board seit:
    21.06.07
    Zuletzt hier:
    11.06.09
    Beiträge:
    99
    Zustimmungen:
    0
    Kekse:
    40
    Erstellt: 14.04.08   #1
    Hey ho - Ich such' nach nem Vorschlag um folgende recht einfache Passage füßig zum klingen zu bringen =)


    |--------------------------------------------------------|
    |--------------------------------------------------------|
    |-------14--------14----------17--------15------14---|
    |-12-------12---------12-----------12--------12------|
    |--------------------------------------------------------|
    |--------------------------------------------------------|
     
  2. Hormic

    Hormic Registrierter Benutzer

    Im Board seit:
    21.10.06
    Zuletzt hier:
    30.04.16
    Beiträge:
    203
    Zustimmungen:
    1
    Kekse:
    175
    Erstellt: 14.04.08   #2
    wo genau liegt das problem?
     
  3. spark90

    spark90 Threadersteller Registrierter Benutzer

    Im Board seit:
    21.06.07
    Zuletzt hier:
    11.06.09
    Beiträge:
    99
    Zustimmungen:
    0
    Kekse:
    40
    Erstellt: 14.04.08   #3
    Beim Wechsel vom 12 in den 17 Bund.
     
  4. Hormic

    Hormic Registrierter Benutzer

    Im Board seit:
    21.10.06
    Zuletzt hier:
    30.04.16
    Beiträge:
    203
    Zustimmungen:
    1
    Kekse:
    175
    Erstellt: 14.04.08   #4
    wenn dir der stretch zu weit ist, kannst du statt den 17 auch den 13 auf der h-saite nehmen, dann siehts so aus:

    |--------------------------------------------------------|
    |-------------------------------13-----------------------|
    |-------14--------14--------------------15------14---|
    |-12-------12---------12-----------12--------12------|
    |--------------------------------------------------------|
    |--------------------------------------------------------|
     
  5. spark90

    spark90 Threadersteller Registrierter Benutzer

    Im Board seit:
    21.06.07
    Zuletzt hier:
    11.06.09
    Beiträge:
    99
    Zustimmungen:
    0
    Kekse:
    40
    Erstellt: 14.04.08   #5
    Danke =)
     
  6. LennyNero

    LennyNero HCA Gitarre: Racks & MIDI Ex-Moderator HCA

    Im Board seit:
    02.12.03
    Zuletzt hier:
    3.12.16
    Beiträge:
    17.525
    Ort:
    Wetzlar
    Zustimmungen:
    288
    Kekse:
    35.616
    Erstellt: 15.04.08   #6
    @Threadersteller:

    bitte schicke mir oder einem anderen Mod einen neuen, aussagekraeftigen Titel.

    Dein Thread wird dann wieder eroeffnet.

    Danke.


    Warum aussagekraeftige Titel
     
Die Seite wird geladen...

Status des Themas:
Es sind keine weiteren Antworten möglich.
mapping