Johannes Stolle von Silbermond

von Ryknow, 27.04.06.

  1. Ryknow

    Ryknow Registrierter Benutzer

    Im Board seit:
    18.01.06
    Zuletzt hier:
    18.08.15
    Beiträge:
    4.640
    Ort:
    Zuhause
    Zustimmungen:
    730
    Kekse:
    10.700
    Erstellt: 27.04.06   #1
    hab mir mal das neue Album angehört und muss sagen...wow...der Typ hat sich hinsichtlich des Bassspiels verdammt verbessert....

    wenn jemand Tabs brauch zu Unendlich...oder Zeit für Optimisten...bin gerad am Tabben =P

    daran liegt auch mein anliegen das ich hier schreib...
    könnt vielleicht mir mal jemand helfen den Versriff zu "Meer sein" zu tabben...einfach geil der riff...aber jetzt auf die schnelle kann ich da nix raushören...
     
  2. H3lli0s

    H3lli0s Registrierter Benutzer

    Im Board seit:
    31.03.06
    Zuletzt hier:
    26.06.09
    Beiträge:
    26
    Zustimmungen:
    0
    Kekse:
    10
    Erstellt: 27.04.06   #2
    will ja nix sagen , aber Johannes hat es schon immer drauf gehabt am Bass , die leute die auf einem Simo Konzert waren kennen den Fichtelteil aber vor allem auch das Basssolo was Johannes als Überbrückung abfeiert und das is einfach nur abartig geil :)
    Geh schon seit 2004 auf die Konzerte und kenn die Monde auch ziemlich gut ;) Bald gehts ja in Erfurt wieder los ^^

    Ähm ja , wenn hier wer die Songs tabben könnte wäre ich sehr dankbar , ich kenn mich da net so aus mit tabs selbstmachen und so ^^
     
  3. Bleecker Street Boogie

    Bleecker Street Boogie Registrierter Benutzer

    Im Board seit:
    18.08.03
    Zuletzt hier:
    23.05.06
    Beiträge:
    2.368
    Ort:
    Mitgliedschaft beendet
    Zustimmungen:
    21
    Kekse:
    2.134
    Erstellt: 29.04.06   #3
    Wo kommt die Band eigentlich her?...
     
  4. riddler

    riddler Registrierter Benutzer

    Im Board seit:
    14.11.05
    Zuletzt hier:
    28.03.15
    Beiträge:
    3.266
    Ort:
    BaWü
    Zustimmungen:
    4
    Kekse:
    6.132
    Erstellt: 29.04.06   #4
    aus Bautzen
     
  5. Ryknow

    Ryknow Threadersteller Registrierter Benutzer

    Im Board seit:
    18.01.06
    Zuletzt hier:
    18.08.15
    Beiträge:
    4.640
    Ort:
    Zuhause
    Zustimmungen:
    730
    Kekse:
    10.700
    Erstellt: 29.04.06   #5
    hmm...hab das Album jezz mal mitm Bass überflogen...ist eigentlich nicht sooo schwer...werd wohl n paar Snippets mal online stellen wenn ich sie getabt hab
     
  6. H3lli0s

    H3lli0s Registrierter Benutzer

    Im Board seit:
    31.03.06
    Zuletzt hier:
    26.06.09
    Beiträge:
    26
    Zustimmungen:
    0
    Kekse:
    10
    Erstellt: 29.04.06   #6
    das wäre echt toll :) Hau einfach alle Bass tabs hier rein die du hast , mich würde das schon ziemlich interessieren ^^ Hab mich auch bissie versucht , aber hab kein Lied beendet bisher . . . ^^ Das überlasse ich glaub ich doch den Tab-Pros :D
     
  7. gorgi

    gorgi Registrierter Benutzer

    Im Board seit:
    28.04.05
    Zuletzt hier:
    9.07.16
    Beiträge:
    2.136
    Zustimmungen:
    27
    Kekse:
    3.883
    Erstellt: 29.04.06   #7
    Seit wann spielt er eigentlich MusicMan? In den alten videos hat er ja noch zu den Warwicks gegriffen. Wo wir gerade beim "Warwickausderhandlegen" sind: So wie ich das sehe spielt Mike Kroeger in dem Video "Far Away" n Ibanez SR, dabei denk ich er würde ausschließich zu Warwicks greifen.
    Naja um On-Topic zu bleiben: Den bassist find ich wirklich gut. Der neuen Song gefällt mir auch. Alles is schön aufeinander abgestimmt und passt einfach.
    Silbermond is wie ich finde die einzige band aus Deutschland in der, ich sag mal Chart-Rock (also ich meine jetzt nich dass sie schlecht sind sondern wollt nur mal so mit dem Rest wie Wir sind Helden und so was in der art. Eben diese Rockwelle), die ihren rum wirklich verdient haben.
     
  8. H3lli0s

    H3lli0s Registrierter Benutzer

    Im Board seit:
    31.03.06
    Zuletzt hier:
    26.06.09
    Beiträge:
    26
    Zustimmungen:
    0
    Kekse:
    10
    Erstellt: 30.04.06   #8
    er spielt den Stingray seit Mai 2005 , seit die Festival Saison angefangen hat , hat dann von dem Schwarzen den er die ganze zeit verwendet hat jetzt auf einen weißen gewechselt , aber ansonsten alle spezifikationen gleich ;)
    Und was dein Statment angeht :
    Stimmt auf jedenfall ^^ Haben hart dafür gearbeitet und die Vorurteile das Silbermond eine totale Balladen Band seien kann man auch durch einen ganz einfachen Konzertbesuch widerlegen.
    Habt ihr MTV TRL gesehen ? Die Leute die da waren hab ich alle auf Konzerten kennen gelernt und so geht immer bei uns ab ^^ Live wirkt das alles ganz anders und man mag es gar net so wirklich glauben aber zu den Songs kann man ganz schön abpogen und rocken ^^ Man muss eben nur guten willen vorher mitbringen , das ist alles ;)
     
  9. Ryknow

    Ryknow Threadersteller Registrierter Benutzer

    Im Board seit:
    18.01.06
    Zuletzt hier:
    18.08.15
    Beiträge:
    4.640
    Ort:
    Zuhause
    Zustimmungen:
    730
    Kekse:
    10.700
    Erstellt: 30.04.06   #9
    Mike Kroeger spielt ausschließlich Spector Bässe...damals hat er noch n paar warwicks gespielt...aber bei Spector hat er glaub ich sogar jetzt n Signature spendiert bekommen
     
  10. Ryknow

    Ryknow Threadersteller Registrierter Benutzer

    Im Board seit:
    18.01.06
    Zuletzt hier:
    18.08.15
    Beiträge:
    4.640
    Ort:
    Zuhause
    Zustimmungen:
    730
    Kekse:
    10.700
    Erstellt: 30.04.06   #10
    Silbermond - Zeit für Optimisten

    Rhytmus und variationen selber raushören !!!

    Intro / Vers
    11 nicht 1-1
    G------------------------------------------------------------
    D------------------------------------------------------------
    A------------------------------------------------------------
    E------------------------------------------------------------
    B-33333/11111111111\66666666666-6666666888888888333333333333-

    G-------------------------------------------------------------
    D-------------------------------------------------------------
    A-------------------------------------------------------------
    E-------------------------------------------------------------
    B-33333/11111111111\66666666666-33333/11111111111\66666666666-


    Refrain
    hier ist es 1-1
    G------------------------------------------------
    D-----------------------------------------------
    A-----------------------------------------------
    E----------6666666666----------------666666666--
    B-66668888-------------3333331111111------------

    G---------------------------------------------------
    D---------------------------------------------------
    A---------------------------10h12--8h10-------------
    E----------6666666666---1010-----88----666666666666-
    B-66668888------------------------------------------

    After Refrain / kleine Bridge
    G----------------------------------
    D----------------------------------
    A----------------------------------
    E-101010-101010-101010-666-666-666-
    B----------------------------------

    Vers Variation
    G--------
    D--------
    A--------
    E--------
    B-6\3/10-

    Bridge
    G-------------------------------------------------------------------
    D-------------------------------------------------------------------
    A-------------------------------------------------------------------
    E-101010-101010-101010-666-666-666-101010-101010-101010-666-666-666-
    B-------------------------------------------------------------------

    G-------------------------------------------------------------------
    D-------------------------------------------------------------------
    A-------------------------------------------------------------------
    E-333333355555555666666668888888-----------------66666666-----------
    B--------------------------------3333333311111111-------------------

    G------------------------------------------------------------
    D------------------------------------------------------------
    A------------------------------------10h12--8h10-------------
    E-333333355555555666666668888888-1010-----88----666666666666--
    B-------------------------------------------------------------

    End Refrain...könnt ich euch selbst ausdenken...aber das ende geht
    G-----------------------------------------------------------------
    D---------------------------------------------------------------
    A----------------------------------------------------1313131313--
    E-111111133333333366666666666101010101010131313131313-----------
    B---------------------------------------------------------------

    G-----------------------------------------------------------------------
    D-13h151515151515151513h15151515151515151513----------------------------
    A-------------------------------------------15151313--------------------
    E----------------------------------------------------111111333333666666-
    B-----------------------------------------------------------------------

    G--------------------------
    D--------------------------
    A---------------------4343-
    E-1-3-4-6-4-6-4-1-3-4------
    B--------------------------
     
  11. Ryknow

    Ryknow Threadersteller Registrierter Benutzer

    Im Board seit:
    18.01.06
    Zuletzt hier:
    18.08.15
    Beiträge:
    4.640
    Ort:
    Zuhause
    Zustimmungen:
    730
    Kekse:
    10.700
    Erstellt: 30.04.06   #11
    Silbermond - Unendlich album Version
    Rhytmus und variationen selber raushören !!!
    erstmal kommt lange nix...dann der Vers
    das ist der hautpteil! Variationen z.B.
    G--14h16p14---|-----------------------|---------------|-------------------
    D----------16\|-----------------------|---------------|-------------------
    A-------------|-7----11---12----------|-7-11-12-14-14-|-10h12-10h12-14-12-
    E-------------|-----------------------|---------------|-------------------
    B-------------|-----------------------|---------------|-------------------


    Refrain
    G----------------------------------
    D----------------------------------
    A----------------------------------
    E----------------------------------
    B-2~~~3~~~2~~~3~~~2~~~3~~~5~~~5~~~-


    refrain 2 u. 3
    G---------------------------------------9h10p9~-
    D-------------------------------------7---------
    A----------------X----------------7~~~----------
    E-9~~~10~~~9~~~----5-----9~~~10~~~--------------
    B--------------------3~~------------------------


    das härtere
    G-------------------------
    D------------------------- X 2
    A------------------7h9p7--
    E-----------------7--------
    B-2222-3333-2222-5---------


    Ende nur auf der album Version auch wieder mit Variationen wie Oktaven
    G-------------------------------
    D-------------------------------
    A------------------------------- immer wieder
    E----------55555555-------------
    B-77777777---------555555555555-


    G-------------------------------
    D-------------------------------
    A-------------------77777777777-
    E----------55555555-------------
    B-77777777----------------------


    G---------------------------------
    D---------------------------------
    A---------------------------------
    E----------55555555-0010h12121212-
    B-77777777------------------------
     
  12. Ryknow

    Ryknow Threadersteller Registrierter Benutzer

    Im Board seit:
    18.01.06
    Zuletzt hier:
    18.08.15
    Beiträge:
    4.640
    Ort:
    Zuhause
    Zustimmungen:
    730
    Kekse:
    10.700
    Erstellt: 30.04.06   #12
    hier kommen ab jetzt so kleine Ausschnitte vom neuen Album...

    Silbermond - Meer sein
    Rhytmus und variationen selber raushören !!!
    Refrain
    G---------------------------------------------------------------------
    D---------------------------------------------------------------------
    A---------------------------------------------------------------------
    E-----------------------------------88-888-888-888-656565656568-------
    B-14\-33-333-333-333-66-666-666-666-----------------------------------

    Vers1 ...huiuiui...da weis ich auch nicht genau...

    G---12-12h14----14-15-17----------------------------
    D-12----------15---------10-10h12-12p10-15-13h15-12-
    A---------------------------------------------------
    E---------------------------------------------------
    B---------------------------------------------------


    G------------------------------
    D------------7-8-10------------
    A-5~3h5-7-8~---------3~~--1~~~-
    E------------------------------
    B------------------------------


    Pre Refrain
    G------------------------------
    D------------------------------
    A------------------------------
    E------------6~~~~~66666666666-
    B-3~~~~1~~~~-------------------

    Basssolo hab ich noch nich ^^
     
  13. Ryknow

    Ryknow Threadersteller Registrierter Benutzer

    Im Board seit:
    18.01.06
    Zuletzt hier:
    18.08.15
    Beiträge:
    4.640
    Ort:
    Zuhause
    Zustimmungen:
    730
    Kekse:
    10.700
    Erstellt: 30.04.06   #13
    Silbermond - Wenn die anderen
    Rhytmus und variationen selber raushören !!!
    G-----------------------------------------
    D-----------------------------------------
    A-----------------------------------------
    E-555555555555555555555555555555555555555-
    B-----------------------------------------


    G-----------------------------------------
    D-----------------------------------------
    A-----------------------------------------
    E-555555555533333333333333555555555555555-
    B-----------------------------------------


    G-----------------------------------------
    D-----------------------------------------
    A-555555555333333333----------------------
    E-------------------555555555555555555555-
    B-----------------------------------------

    G-----------------------------------------
    D-----------------------------------------
    A-555555555333333333----------------------
    E-------------------555555555555555555555-
    B-----------------------------------------


    G---------------------------------------------
    D---------------------------------------------
    A---------------------------------------------
    E-5555555555333333333333335553555535353535353-
    B---------------------------------------------

    Refrain
    G------------------------------------------------------------------------
    D------------------------------------------------------------------------
    A------------------------------------------------------------------------
    E--------------5-5-5-3-5---5-5-5-3-5---------------5-5-5-3-5---5-5-5-3-5-
    B-3333331111111-----------------------3333331111111----------------------


    G-----------------------------------------------------
    D-----------------------------------------------------
    A-----------------------------------------------------
    E-33333311111115-5-5-3-5---5-5-5-3-5---------------5--
    B------------------------------------3333331111111----
     
  14. Ryknow

    Ryknow Threadersteller Registrierter Benutzer

    Im Board seit:
    18.01.06
    Zuletzt hier:
    18.08.15
    Beiträge:
    4.640
    Ort:
    Zuhause
    Zustimmungen:
    730
    Kekse:
    10.700
    Erstellt: 30.04.06   #14
    kopiert euch das einfach und kaltscht es in den Editor...dann hats normalgröße und ist lesbar
     
  15. Shoto

    Shoto Registrierter Benutzer

    Im Board seit:
    10.11.05
    Zuletzt hier:
    5.12.16
    Beiträge:
    268
    Zustimmungen:
    31
    Kekse:
    11
    Erstellt: 01.05.06   #15
    Vielen Dank für die Tabs, hätte jetzt nur noch eine Frage, was bedeutet "h" "p" ?

    Gruß Shoto
     
  16. KingNothing`

    KingNothing` Registrierter Benutzer

    Im Board seit:
    18.01.05
    Zuletzt hier:
    23.02.15
    Beiträge:
    455
    Zustimmungen:
    0
    Kekse:
    139
    Erstellt: 01.05.06   #16
    hammer-on und pull-off
     
  17. Shoto

    Shoto Registrierter Benutzer

    Im Board seit:
    10.11.05
    Zuletzt hier:
    5.12.16
    Beiträge:
    268
    Zustimmungen:
    31
    Kekse:
    11
    Erstellt: 01.05.06   #17
    Dankeschön :)
    Gruß Shoto
     
  18. H3lli0s

    H3lli0s Registrierter Benutzer

    Im Board seit:
    31.03.06
    Zuletzt hier:
    26.06.09
    Beiträge:
    26
    Zustimmungen:
    0
    Kekse:
    10
    Erstellt: 01.05.06   #18
    Die bisherigen Tabs sehen doch ganz nett aus :)
    Ich hab ma ne Frage :

    Hat wer die Bass tabs zu Machs dir Selbst vom alten Album ? Kann die wer für mich tabben ?? Wäre echt klasse :D

    Danke im Vorraus ma ^^

    Jo
     
  19. bollehimself

    bollehimself Registrierter Benutzer

    Im Board seit:
    20.03.06
    Zuletzt hier:
    28.10.12
    Beiträge:
    51
    Ort:
    Erlangen
    Zustimmungen:
    1
    Kekse:
    10
    Erstellt: 04.05.06   #19
    wenn wir scho grade dabei sind ... ich suche symphonie tabs ... ich weiss dass der bass da erst spät dazukommt aber unsere schulband will das uuuunbedingt spieln ... wäre nett ... danke im voraus
     
  20. Joosten

    Joosten Registrierter Benutzer

    Im Board seit:
    30.10.05
    Zuletzt hier:
    8.09.13
    Beiträge:
    377
    Ort:
    4sen
    Zustimmungen:
    0
    Kekse:
    171
    Erstellt: 05.05.06   #20
    bitte löschen ^^
     
Die Seite wird geladen...

mapping