Krautschädl - An Woiza

M
Moafi
Registrierter Benutzer
Zuletzt hier
23.12.20
Registriert
12.01.09
Beiträge
381
Kekse
88
Hi!

Ich suche Tabs oder Akkorde für An Woiza von Kraudschädl. Ist ne oberösterreichische Band mit "eingeschränktem Bekanntheitsgrad :D" drum hab ich im Netz nix gefunden.

Den Song kann man sich hier anhören bzw. sich das Video ansehen:

es hört sich nicht sonderlich komplex an aber ich komm einfach nicht drauf :redface:

PS: ich hab es extra nicht in den Sammelthread gepostet, weil dort stand, wenn der Titel bekannt ist, soll man nen eigenen Thread aufmachen. hoffe, es ist ok so.

Herzlichen Dank

gruß
 
Eigenschaft
 
I
I_Am_Hermes
Registrierter Benutzer
Zuletzt hier
18.08.09
Registriert
27.07.09
Beiträge
1
Kekse
0
Hier Bitte!

Intro und Vers Plus die Akkorde vom Ref.

Wenn du's original spielen willst: Tuning( D# C# G# F# A# D# ) --> Alle Saiten einen Halbton tiefer.

P.S.: Ist nicht ganz richtig aber alles was ich um 23:45 Uhr noch hingebracht hab. Hoffe du kennst dich aus, wenn nicht einfach fragen.

Lg
Hermes

an woiza


Track 1

E||-------------------------|----------------------3--|
B||----------1--------------|-----1-------------------|
G||---------------0---------|--0-------0--------------|
D||-------2----------2h--3--|-------------3--2--------|
A||--0----------------------|-------------------3-----|
E||-------------------------|-------------------------|



--L------------------0----|-------------------------|----------0------------|
-----1--------------------|----------1--------------|-----1---------1----1--|
--------0h--2-----2-------|---------------0---------|--0-----------------0--|
---------------0----------|-------2----------2h--3--|--------------------3--|
--------------------------|--0----------------------|-----------------------|
--------------------------|-------------------------|-----------------------|



--------------------------||--------------------------|
--1s----3--3--3--3-----1--||-----------1--------------|
--0s----0--0--0--0--0--0--||*---------------0---------|
--3s----5--5--5--5--3-----||*-------2----------2h--3--|
--------------------------||---0----------------------|
--------------------------||--------------------------|



----------------------3--|--L------------------0----|-------------------------|
-----1-------------------|-----1--------------------|----------1--------------|
--0-------0--------------|--------0h--2-----2-------|---------------0---------|
-------------3--2--------|---------------0----------|-------2----------2h--3--|
-------------------3-----|--------------------------|--0----------------------|
-------------------------|--------------------------|-------------------------|



-------------------------|-----------------------------||
-----1-------------------|-----------------------------||
--0-------0--------------|---------------------------*-||
-------------3--2-----0--|--0h--2--0-----------------*-||
-------------------3--3--|---------3-------0--0h--2----||
-------------------------|--------------3-----3---3----||



------------------------|-------------------------|-------------------------|
-------1--1--1--1--1----|--1--1--1--1--1----1--1--|--1--1--1----1--1--1--1--|
-------0--0--0--0--0----|--0--0--0--0--0----0--0--|--0--0--2----2--2--2--2--|
-------2--2--2--2--3----|--3--3--3--3--2----2--2--|--2--2--0----0--0--0--0--|
--0---------------------|--------------3----3--3--|--3--3-------------------|
------------------------|-------------------------|-------------------------|


C Gadd11 Am F7M

--0--------0--------|--0--------0--------|-----------||
--1--------1--------|--1--------1--------|-----------||
--0--------0--------|--2--------2--------|-----------||
--2--------0--------|--2--------3--------|-----------||
--3--------2--------|--0--------3--------|-----------||
-----------3--------|--------------------|-----------||

 
L
LarryP
Registrierter Benutzer
Zuletzt hier
10.08.14
Registriert
09.01.08
Beiträge
11
Kekse
0
hach wie geil.
und ich such mir den arsch ab seit monaten. :D
 

Neue Themen

Unser weiteres Online-Angebot:
Bassic.de · Deejayforum.de · Sequencer.de · Clavio.de · Guitarworld.de · Recording.de

Musiker-Board Logo
Oben