Layla -Clapton Riff

von Jaildri, 09.10.08.

Sponsored by
pedaltrain
  1. Jaildri

    Jaildri Registrierter Benutzer

    Im Board seit:
    09.10.08
    Zuletzt hier:
    23.06.09
    Beiträge:
    7
    Kekse:
    10
    Erstellt: 09.10.08   #1
    Hey kann mir einer helfen und sagen wie mann des so machen kann wie hier ab der 55 sekunde :

    http://de.youtube.com/watch?v=OF0EMnruqzY

    Im internet steht dass des so sein soll bei mir haut des aber nicht richtig hin!

    ---------------|------------------
    ---------------|------------------
    ------------2--|-----------------
    ------------0--|----0--------3---
    -----0---3----|--------3----1---
    ---------------|------------------

    Danke

    Jaildri
     
  2. Mix

    Mix Registrierter Benutzer

    Im Board seit:
    29.09.08
    Zuletzt hier:
    24.10.13
    Beiträge:
    173
    Kekse:
    76
    Erstellt: 09.10.08   #2
    -------------------------------|--------------------------------------
    ----------------------------3--|--------------------------------------
    ----------------------------2--|----7---5---3---------5---------7---
    ----------0h3p0-----------0--|----7---5---3---------5---------7---
    --0h3--------------------3----|----5---3---1- -0-----3---0-----5---
    -------------------------------|--------------------3----------3------

    so würd ichs spielen - also du meinst ab der stelle wo das lied richtig anfängt?
    das wäre der teil bis zum strich -
    h = hammer on und
    p = pull off

    €dit: nochmal den teil nach dem strich verändert (ist der rhytmusgitarrenteil, der beim ersten mal aber noch garnet gespielt wird - auch wäre es wenn man diese gitarre spielt vielleicht einfacher alles auf der E-Saite im 5.Bund zu beginnen)
     
  3. The Melvin

    The Melvin Registrierter Benutzer

    Im Board seit:
    07.08.07
    Zuletzt hier:
    17.09.20
    Beiträge:
    380
    Ort:
    Geisenheim
    Kekse:
    1.652
    Erstellt: 09.10.08   #3



    G--------------------2---l-2
    D--------0h3p0-----0---l-0-----3 ------5----------7
    A---0h3---------3------l----3--1--0----3--0------5
    E------------------------l-------------3--------3
    Spielt er zuerst------------so geht der Rhythmus weiter


    und lead:

    e---------10h13p10------10-----13b 13 12------10
    B 10h13--------------13----------------------13


    e----------10h13p10------10----15b--15--12------10
    B 10h13--------------13------------------------13
     
  4. onkelkeks

    onkelkeks Registrierter Benutzer

    Im Board seit:
    02.03.07
    Zuletzt hier:
    28.07.14
    Beiträge:
    448
    Kekse:
    114
    Erstellt: 09.10.08   #4
  5. pyrokar

    pyrokar Registrierter Benutzer

    Im Board seit:
    13.09.07
    Zuletzt hier:
    22.02.12
    Beiträge:
    166
    Ort:
    Ilmenau
    Kekse:
    29
    Erstellt: 10.10.08   #5
    Also ich kann die freelicks seite auch nur empfehlen.

    Da habe ich Layla auch her und muss sagen, es klingt echt topp :)
     
  6. stam

    stam Registrierter Benutzer

    Im Board seit:
    30.01.05
    Zuletzt hier:
    24.09.20
    Beiträge:
    677
    Ort:
    Liederbach am Taunus
    Kekse:
    1.499
    Erstellt: 10.10.08   #6
    OffTopic:

    Man hat der Typ Tone in den Fingern... Bei 1:06 gefällt mir der Sound richtig, richtig gut!
     
Die Seite wird geladen...

mapping