Live Shit+Newsted Slapp

  • Ersteller Diet?ff
  • Erstellt am
D
Diet?ff
Registrierter Benutzer
Zuletzt hier
09.04.05
Registriert
01.09.04
Beiträge
44
Kekse
0
Hallo!

Erstmal Sorry das schon wieder ne metallica Frage kommt.

Weiß jemand ob es Tabs von dem Slapp Teil auf der San Diego DVD von Live Shit beim Anfang von dem Bass-solo gibt?

Danke für antworten

Mfg
Dietöfff
 
Eigenschaft
 
B
BallTongue
Registrierter Benutzer
Zuletzt hier
21.08.13
Registriert
30.08.03
Beiträge
430
Kekse
22
Dietöff schrieb:
Hallo!

Erstmal Sorry das schon wieder ne metallica Frage kommt.

Weiß jemand ob es Tabs von dem Slapp Teil auf der San Diego DVD von Live Shit beim Anfang von dem Bass-solo gibt?

Danke für antworten

Mfg
Dietöfff

Glaub ich nicht. Ist ja total kurz und der slappt ja wohl nur aus ''Langeweile'' kurz ein bisschen :D
 
Hellfire
Hellfire
Registrierter Benutzer
Zuletzt hier
11.11.12
Registriert
01.07.04
Beiträge
2.461
Kekse
1.163
Das is doch nur ganz kurz. Hörs doch grad raus, dürft doch kein Problem sein.
 
D
Doomclaw
Registrierter Benutzer
Zuletzt hier
06.11.11
Registriert
22.04.04
Beiträge
101
Kekse
0
lol der Newsted hat mal geslappt?
kann der überhaupt slappen?
ich dachte der plekt nur bis auf Teufel komm raus :rolleyes:
 
H
Hoest
Gesperrter Benutzer
Zuletzt hier
13.07.10
Registriert
19.08.04
Beiträge
48
Kekse
0
@Hellfire also ich finde diesen teil auch ganz gut (so wie dietoeff) aber meine raushörkünste sind noch nicht so ausgebrägt

kann das jemand von euch raushören und hier reintabben ich wäre sehr dankbar

Danke
Hoest
 
B
BallTongue
Registrierter Benutzer
Zuletzt hier
21.08.13
Registriert
30.08.03
Beiträge
430
Kekse
22
Doomclaw schrieb:
lol der Newsted hat mal geslappt?
kann der überhaupt slappen?
ich dachte der plekt nur bis auf Teufel komm raus :rolleyes:

Der spiel sogar auf der Cunning Stunts bei Seek and Destroy einmal kurz mit Fingern :eek:
 
roastbeef
roastbeef
Registrierter Benutzer
Zuletzt hier
25.07.16
Registriert
30.11.03
Beiträge
3.403
Kekse
4.078
Ort
Graz
Hoest schrieb:
@Hellfire also ich finde diesen teil auch ganz gut (so wie dietoeff) aber meine raushörkünste sind noch nicht so ausgebrägt

kann das jemand von euch raushören und hier reintabben ich wäre sehr dankbar

Danke
Hoest
du hast sogar VIDEO...
guck doch genau hin!
ungefähr wo seine finger liegen und spiel dich mal!
 
H
Hoest
Gesperrter Benutzer
Zuletzt hier
13.07.10
Registriert
19.08.04
Beiträge
48
Kekse
0
hab ich auch schon ausbrobiert aber ich habs nicht hingekriegt
 
H
Hoest
Gesperrter Benutzer
Zuletzt hier
13.07.10
Registriert
19.08.04
Beiträge
48
Kekse
0
also kann hier niemand was raushören schade
 
PissingInAction
PissingInAction
Registrierter Benutzer
Zuletzt hier
24.09.20
Registriert
07.08.04
Beiträge
384
Kekse
441
Ort
weltweit
Hoest schrieb:
also kann hier niemand was raushören schade
Was raushören nicht, weil ich die live shit nicht habe, aber ich kann dir ne Tabulatur schicken, von der ich doch stark annehme, dass sie den slapping part enthält, den du meinst:

Artist: Jason Newstead
Album: ??????? (I don't think it's on one)
Song: Bass solo
Original tab by: Nick S. (bass_freak@users.basstabarchive.com)
Re-tabbed by: Nick S. (same guy)

Ok, I've gotten some E-mails and there is some cofusion here. This is NOT
the live shit version. This is the STUDIO VERSION. There were some mistakes
too and I've fixed them but I can't gaurantee that section 3 is toatlly
right. Enjoy...

R- let note ring
H- hammer on
/- silde up
S- slap note
\- slide down

Section 1(play once)
G:-------------------------------------
D:-------------2-----------------------
A:--4------2-4---4---------------------
E:-----2-4-----------------------------

Repeat this section 5x
G:---------------|
D:----------2----|
A:--------2---4--|
E:--2-2-4--------|

G: --------------------------------------------------------------------
D:--------------------------6-6-6-6----------------4-4-4-4-------------
A:---------------------------------------------------------------------
E:--0-0-2-2-3-4-4-4-4-4-4R-----------3-2-2-2-2-2R-----------4-2--------
Repeat this section 2x
G:------11h13-11------|-------------------|
D:--11-----------11-14|------------2------|
A:--------------------|--4-------2---4----|
E:--------------------|----2-2-4----------|

G:-------------------------------------6---6----6-----------6----6-----
D:--4h6--4h6-----------------2----------------------------------------
A:-----------4-7--4-------2----4----4----4----4-----7-4--4----4--------
E:------------------2-2-4----------------------------------------------

G:----------------6----6----6-------
D:------4h6-4-----------------------E
A:--4h7--------4----4----4-----7-4--N
E:----------------------------------D

Section 2
Repeat this one line 4x
G:------10----10-----12--14--12--10---------9------9----10--12--10--9-
D:---------12----12---------------------------10----10----------------
A:--0r-------------------------------0r-0r----------------------------
E:--------------------------------------------------------------------
Play this line 4x
G:----------7---4---4-5---5---
D:--------0---0---5-----7---7-
A:--0r-0r---------------------
E:----------------------------
Play this part quietly until you start playing the chords.Then Louder
G:--5---7---9----10----10-----12--14--12--10-9----9----10--12--10--9--
D:----7---9---10----12----12-------------------10---10----------------
A:--------------------------------------------------------------------
E:--------------------------------------------------------------------
Play this Chord line 4x
G:--10-10-10-10-10-12-14-12-10-9--9--9--9--9--10-12-10-9---
D:--12-12-12-12-12-12-14-12-10-10-10-10-10-10-10-12-10-9---
A:---------------------------------------------------------
E:---------------------------------------------------------
Repeat this line 3x
G:----------7---4---4-5---5----
D:--------0---0---5-----7---7--
A:--0r-0r----------------------
E:-----------------------------
Play this a lot slower
G:------------7---4---4-5-------2/5-------|
D:---------0----0---5-----7--2------------|E
A:--0r-0r-------------------------------0r|N
E:----------------------------------------|D

Section 3

This is the last section. It's really fast and whoever talks yells hey
after he slaps the low E sometimes. Cool Section.

G:------------------------------------------------------------
D:------------------------------------------------------------
A:---------0-2-3------0-0-0-0-0h2h3----0-2-3----0-0-0-0-0h2h3-
E:--10\0s---------0s----------------0s-------0s---------------

G:-----------------H------------------------------------H
D:-----------------E------------------2h3---------------E
A:-----------------Y------------------------------------Y
E:--0s-0s-0s-0s-0s-!--0s-0s-0s-0s-0s-----0s-0s-0s-0s-0s-!

G:-----------------
D:-----------------
A:-----------------
E:--0s-0s-0s-0s-0s-

Repeat the whole section 3 one more time excluding the heys and finish the
song on low E. I don't think this song is on an album and I downloaded it
off of a music download site called Win MX. You can download this off Win
MX, Bearshare, Morpheous, whatever. Rock on.


Taken from The BassMasta -- http://www.bassmasta.net


2003 Bassmasta.net


Sektion drei dürfte das sein, was du suchst, hab nur der Vollständigkeit halber alles gepostet.
 
H
Hoest
Gesperrter Benutzer
Zuletzt hier
13.07.10
Registriert
19.08.04
Beiträge
48
Kekse
0
dankeschön
 
Nullchecker
Nullchecker
Registrierter Benutzer
Zuletzt hier
21.11.17
Registriert
21.08.04
Beiträge
1.701
Kekse
3.382
Ort
Mannheim
PissingInAction schrieb:
This is NOT the live shit version. This is the STUDIO VERSION.

jo, wollt ich nur mal anmerken.
 
PissingInAction
PissingInAction
Registrierter Benutzer
Zuletzt hier
24.09.20
Registriert
07.08.04
Beiträge
384
Kekse
441
Ort
weltweit
Nullchecker schrieb:
jo, wollt ich nur mal anmerken.
Fragt sich nur, die Studioversion wovon, wenn es in keinem Lied gespielt wird, das auf einem Album vorkommt.
Außerdem, wenn es das ist, was Hoest und Dietöff suchen, ist doch alles in Ordnung, hab wie gesagt kein Plan, ob das die gesuchte version ist, weiß nur, dass Newsted das verschiedene Male auf Touren zum besten gegeben hat.
 
Nullchecker
Nullchecker
Registrierter Benutzer
Zuletzt hier
21.11.17
Registriert
21.08.04
Beiträge
1.701
Kekse
3.382
Ort
Mannheim
Ja klar. Wenns die richtige Version is is ja alles paletti. Aber ich denk nich dass es umsonst da steht dass es nich die live shit version is. Naja, wurst.
 

Ähnliche Themen


Neue Themen

Unser weiteres Online-Angebot:
Bassic.de · Deejayforum.de · Sequencer.de · Clavio.de · Guitarworld.de · Recording.de

Musiker-Board Logo
Oben