Master of Pupperts Refrain

von ginod, 04.04.05.

  1. ginod

    ginod Helpful & Friendly User HFU

    Im Board seit:
    10.03.04
    Zuletzt hier:
    8.12.16
    Beiträge:
    1.564
    Ort:
    Osnabrück
    Zustimmungen:
    143
    Kekse:
    5.741
    Erstellt: 04.04.05   #1
    Code:
    |--------------------------------------------------------------------|
    |--------------------------------------------------------------------|
    |-9-------7--9------------------------------------------8------------|
    |-9-------7--9------9------------------10--9------------8--9---------| 
    |-7-------5--7--7-9---10-9h10----------10--9------------6--9---------|
    |-0-0-0-0----------------------8-8-8-8-8---7----8-8-8-8----7---------|
    
    Also irgendwas kommt mir faul. Die letzten 2 Akkorde können irgendwie nicht stimmen die passen nciht. Oder mach ich was falsch ??? Irgendwie hört sichs bei mir komisch an obwohl ichs genauso spiele. Außerdem finde ichs originaler wenn man einfach nur so spielt (habe den Tab umgeschrieben):

    Code:
    |--------------------------------------------------------------------|
    |--------------------------------------------------------------------|
    |-9-------7--9------------------------------------------8------------|
    |-9-------7--9------9------------------10--9------------8--9---------| 
    |-7-------5--7--------10---------------10--9------------6--9---------|
    |-0-0-0-0----------------------8-8-8-8-8---7----8-8-8-8----7---------|
    
     
  2. LennyNero

    LennyNero HCA Gitarre: Racks & MIDI Ex-Moderator HCA

    Im Board seit:
    02.12.03
    Zuletzt hier:
    7.12.16
    Beiträge:
    17.525
    Ort:
    Wetzlar
    Zustimmungen:
    288
    Kekse:
    35.627
    Erstellt: 04.04.05   #2

    Zum Song selbst moechte ich nichts sagen... aber zur Darstellung wird dir auffallen das ich deinen Beitrag geaendert habe. Indem du die "Code"-Tags verwendest, wird der Text mit einer nichtproportionalen Schrift dargestellt, und die Tabs bleiben lesbar.

    Gruss,
    markus
     
  3. Matkra

    Matkra Registrierter Benutzer

    Im Board seit:
    18.08.03
    Zuletzt hier:
    25.08.14
    Beiträge:
    1.447
    Ort:
    Saarbrücken
    Zustimmungen:
    6
    Kekse:
    448
    Erstellt: 04.04.05   #3
    Ob es genau so gespielt wird von den Jungs,weiß ich nicht.
    Aber bei mir klingt das erste wie im Original.
    Bei deiner umgeschrieben Versionen fehlt ja die ganze
    Singlenote-Linie,die das Riff erst wirklich interessant macht.

    matkra
    mit dem ersten Beitrag im Gitarren-forum seit circa einem Jahr :D
     
  4. ginod

    ginod Threadersteller Helpful & Friendly User HFU

    Im Board seit:
    10.03.04
    Zuletzt hier:
    8.12.16
    Beiträge:
    1.564
    Ort:
    Osnabrück
    Zustimmungen:
    143
    Kekse:
    5.741
    Erstellt: 04.04.05   #4
    na so langsam hab ich verstanden was ich falsch gespielt habe. Hört sich schon in bissle besser an. Muss nur noch in besseres Timing entwickeln für den Riff
     
  5. Dark

    Dark Registrierter Benutzer

    Im Board seit:
    19.08.03
    Beiträge:
    1.931
    Zustimmungen:
    234
    Kekse:
    3.577
    Erstellt: 04.04.05   #5
    Und das in einem Thread der etwas mit Metallica zu tun hat :eek:

    Das erste stimmt. Da ist allerdings noch eine 16tel Pause vor den Single Notes...
     
  6. Hellfire

    Hellfire Registrierter Benutzer

    Im Board seit:
    01.07.04
    Zuletzt hier:
    11.11.12
    Beiträge:
    2.477
    Zustimmungen:
    3
    Kekse:
    1.173
    Erstellt: 04.04.05   #6
    Ooh, Matkra wird noch ein richtiger Metallica Fan. :D

    Also das Tab stimmt so.. vielleicht hast du wirklich ein falsches Timing.
     
  7. AgentOrange

    AgentOrange Mod Emeritus Ex-Moderator

    Im Board seit:
    16.04.04
    Zuletzt hier:
    7.12.16
    Beiträge:
    9.770
    Ort:
    Heidelberg
    Zustimmungen:
    354
    Kekse:
    7.549
    Erstellt: 04.04.05   #7
    Das zweite klingt originaler weil mal nur diese 2 singlenotes wirklich hört auf der CD, der Rest geht da n bissl stark unter. Live isses recht deutlich ;)
     
  8. Asphetis

    Asphetis Registrierter Benutzer

    Im Board seit:
    27.12.04
    Zuletzt hier:
    26.01.12
    Beiträge:
    414
    Ort:
    Bergrheinfeld bei SW
    Zustimmungen:
    3
    Kekse:
    153
    Erstellt: 04.04.05   #8
     
Die Seite wird geladen...

mapping