Übungen für alle möchtegern Kirk Hammets wie mich

  • Ersteller Brokensword
  • Erstellt am
Brokensword
Brokensword
Registrierter Benutzer
Zuletzt hier
20.05.12
Registriert
09.02.06
Beiträge
157
Kekse
45
HI,

obwohl meine linke hand ein bissl kapput ist, und ich mir vor kurzem beim Training den Arm verletzt hab, gebe ich trotzedem noch nicht auf schneller mit dem Fingern zu werden hab deshalb mit folgenden Übungen angefangen und dachte, dass es bestimmt noch andere gibt die diese Gebrauchen könnten.

ach ja was sagen die Profis hier dazu, bin ich mit dem übungen auf den richtigen Weg?
---------------------------------------------------------------------------------------------------
h - hammer on
p - pull off
\ - slide down
/ - slide up
tr - trill
u - upstroke
d - downstroke


Code:
Figure 1:
d u d u d etc
||-0--0--0--0--3--3--3--3--4--4--4--4--7--7--7--7-|
||------------------------------------------------|
||------------------------------------------------|
||------------------------------------------------|
||------------------------------------------------|
||------------------------------------------------|


|-8--8--8--8--11--11--11--11--12--12--12--12--15--15--15--15-|
|------------------------------------------------------------|
|------------------------------------------------------------|
|------------------------------------------------------------|
|------------------------------------------------------------|
|------------------------------------------------------------|


|-16--16--16--16--15--15--15--15--12--12--12--12--11--11--11--11-|
|----------------------------------------------------------------|
|----------------------------------------------------------------|
|----------------------------------------------------------------|
|----------------------------------------------------------------|
|----------------------------------------------------------------|

|-8--8--8--8--7--7--7--7--4--4--4--4--3--3--3--3------||
|-----------------------------------------------------||
|-----------------------------------------------------||
|-----------------------------------------------------||
|-----------------------------------------------------||
|-----------------------------------------------------||

Figure 2:
d u d u etc
||-4-3-2-1-5-4-3-2-6-5-4-3-5-4-3-2-|-6-5-4-3-7-6-5-4-8-7-6-5-7-6-5-4-|
||---------------------------------|---------------------------------|
||---------------------------------|---------------------------------|
||---------------------------------|---------------------------------|
||---------------------------------|---------------------------------|
||---------------------------------|---------------------------------|


|-8-7-6-5-9-8-7-6-10-9-8-7-9-8-7-6-|-10-9-8-7-11-10-9-8-12-11-10-9-11-10-9-8-||
|----------------------------------|-----------------------------------------||
|----------------------------------|-----------------------------------------||
|----------------------------------|-----------------------------------------||
|----------------------------------|-----------------------------------------||
|----------------------------------|-----------------------------------------||


Figure 3:
d u d u
||-0-1-3-4-1-3-4/6-3-4-6/7-4-6-7/9-|-6-7-9/10-7-9-10/12-9-10-12/13-10-12-13/-15-|
||---------------------------------|--------------------------------------------|
||---------------------------------|--------------------------------------------|
||---------------------------------|--------------------------------------------|
||---------------------------------|--------------------------------------------|
||---------------------------------|--------------------------------------------|


|-15-13-12\10-13-12-10\9-12-10-9\7-10-9-7\6-|-9-7-6\4-7-6-4\3-6-4-3\1-4-3-1-0-|| 
|-------------------------------------------|---------------------------------|| 
|-------------------------------------------|---------------------------------|| 
|-------------------------------------------|---------------------------------|| 
|-------------------------------------------|---------------------------------|| 
|-------------------------------------------|---------------------------------|| 


Figure 4:
d u d u etc
|-4-0-2-0-5-0-2-0-7-0-4-0-9-0-5-0-|-11-0-7-0-12-0-9-0-14-0-11-0-16-0-12-0-||
|---------------------------------|---------------------------------------||
|---------------------------------|---------------------------------------||
|---------------------------------|---------------------------------------||
|---------------------------------|---------------------------------------||
|---------------------------------|---------------------------------------||

Figure 5A (laborious): 
||----------------------------|| 
||---------------8------------|| 
||-----7--9--10-----10--9--7--|| 
||-10-------------------------|| 
||----------------------------|| 
||----------------------------||

Fig 5B (easier): 
||-------------------------||
||-------5--6--8--6--5-----||
||-5--7-----------------7--||
||-------------------------||
||-------------------------||
||-------------------------||

Fig 5C (Easier):
||-------------------------||
||----------6--8--6--------||
||-5--7--9-----------9--7--||
||-------------------------||
||-------------------------||
||-------------------------||


Figure 6:
||-------------------------------------------------||
||-------------------------------------------------||
||-7--5--------7--5--------7--5--------7--5--------||
||-------7--5--------7--5--------7--5--------7--5--||
||-------------------------------------------------||
||-------------------------------------------------||


Figure 7:
||-------------------------------------------------||
||-------------------------------------------------||
||----------5--7--5-----------------5--7--5--------||
||----5--7-----------7--5-----5--7-----------7--5--||
||-7-----------------------7-----------------------||
||-------------------------------------------------||


Figure 8:
||------------------------------------------------------||
||--------------10-------------------------8------------||
||--------7--8------8--7-------------7--8-----8--7------||
||-7--10------------------10--7--10-----------------10--||
||------------------------------------------------------||
||------------------------------------------------------||


Figure 9:
||-------------------------------------|------------------------------------|
||-------------------------------------|-------------------------5--8--5----|
||-------------------------------------|-------5--7--5-----5--7-----------7-|
||-------------------------5--7--5-----|-5--7-----------7-------------------|
||-------5--7--5-----5--7-----------7--|------------------------------------|
||-5--8-----------8--------------------|------------------------------------|


|-------5--8--5-----------5----------|------------------------------------|
|-5--8-----------8--5--8-----8--5----|-------5----------------------------|
|----------------------------------7-|-5--7-----7--5-----------5----------|
|------------------------------------|----------------7--5--7-----7--5----|
|------------------------------------|----------------------------------7-|
|------------------------------------|------------------------------------|


|-------------------||
|-------------------||
|-------------------||
|-------5-----------||
|-5--7-----7--5-----||
|----------------8--||


Figure 10:
||------------------------------------------------|--------------------------|
||------------------------------------------------|-------------5------------|
||-------------------------------------5----------|-------5--7-----7--5------|
||-------------5-----------------5--7-----7--5----|-5--7-----------------7---|
||-------5--7-----7--5-----5--7-----------------7-|--------------------------|
||-5--8-----------------8-------------------------|--------------------------|


|--------------------------------------5----------|
|-------------5------------------5--8-----8--5----|
|-------5--7-----7--5------5--7-----------------7-|
|-5--7-----------------7--------------------------|
|-------------------------------------------------|
|-------------------------------------------------|

|-------5--8--5----------------------------------|
|-5--8-----------8--5-----------5--8--5----------|
|----------------------7--5--7-----------7--5----|
|----------------------------------------------7-|
|------------------------------------------------|
|------------------------------------------------|

|------------------------------------------------||
|------------------------------------------------||
|-------5--7--5----------------------------------||
|-5--7-----------7--5-----------5--7--5----------||
|----------------------7--5--7-----------7--5----||
|----------------------------------------------8-||


Figure 11: -------------awkward------------------
||-----------------------------3-5-|-7-5-3---------------------------------||
||-------------------------5-7-----|-------7-5-----------------------------||
||-------------------4-5-7---------|-----------7-5-4-----------------------||
||-------------4-5-7---------------|-----------------7-5-4-----------------||
||-------3-5-7---------------------|-----------------------7-5-3-----------||
||-3-5-7---------------------------|-----------------------------7-5-3-----||



Figure 12:
||-------------------------------5-|-7-5------------------------------------||
||-------------------------5-7-8---|-----8-7--------------------------------||
||-------------------4-5-7---------|---------9-7-5\4------------------------||
||-------------4-5-7---------------|-----------------7-5--------------------||
||-------3-5-7---------------------|---------------------9-7-5\3------------||
||-3-5-7---------------------------|-----------------------------7-5-3------||


Figure 13:
||----------------------------|-----------------4-5-6-7/|
||----------------------------|---------5-6-7-8---------|
||----------------------------|-5-6-7-8-----------------|
||--------------------6-7-8-9-|-------------------------|
||-----------7-8-9-10---------|-------------------------|
||-8-9-10-11------------------|-------------------------|


|8-7-6-5------------------|---------------------------------||
|--------9-8-7-6----------|---------------------------------||
|----------------9-8--7-6-|---------------------------------||
|-------------------------|-10-9-8-7------------------------||
|-------------------------|----------11-10-9-8--------------||
|-------------------------|--------------------12-11-10-9\8-||


Figure 14:
|----------------------------------|----------------------------------------|
|----------------------------------|----------------------------------------|
|----------------------------------|---------------------10-11-12-13-14-15--|
|----------------------------------|7-8-9-10-11-12-13-14--------------------|
|-----------------4-5-6-7-8-9-10-11|----------------------------------------|
|-1-2-3-4-5-6-7-8------------------|----------------------------------------|
1 2 3 4 1 2 3 4 1 2 3 4 1 2 3 4 1 2 3 4 1 2 3 4 1 2 3 4 1 2

|------|------------------------17-18-19-20-21-20-19-18|17-16-15-14----------|
|------|14-15-16-17-18-19-20-21------------------------|------------18-17-16-|
|-16-17|-----------------------------------------------|---------------------|
|------|-----------------------------------------------|---------------------|
|------|-----------------------------------------------|---------------------|
|------|-----------------------------------------------|---------------------|
3 4 1 2 3 4 1 2 3 4 1 2 3 4/ 4 3 2 1 4 3 2 1 4 3 2

|---------------------------|----------------------------------|-------------|
|-15-14-13-12-11------------|----------------------------------|-------------|
|----------------14-13-12-11|10-9-8-7--------------------------|-------------|
|---------------------------|---------11-10-9-8-7-6-5-4--------|-------------|
|---------------------------|---------------------------8-7-6-5|4-3-2-1------|
|---------------------------|----------------------------------|--------5-4--|
1 4 3 2 1 4 3 2 1 4 3 2 1 4 3 2 1 4 3 2 1 4 3 2 1 4 3 2 1 4 3

|--------||
|--------||
|--------||
|--------||
|--------||
|-3-2\1--||

2 1\1


Figure 15:
|--------------------------------------11|13-11-----------------------------|
|-----------------------------10-12-14---|------14-12-10\8------------------|
|---------------------8-10-12------------|-----------------10-8-------------|
|--------------7-9-11--------------------|----------------------11-9-7\5----|
|-------6-8-10---------------------------|----------------------------------|
|-5-7-9----------------------------------|----------------------------------|


|-----------||
|-----------||
|-----------||
|-----------||
|-8-6-------||
|-----9-7-5-||


Figure 16:
||-------------------------------3|5-3-------------------------------||
||-------------------------4-5-7--|----7-5---------------------------||
||-------------------3-5-6--------|--------8-6-5\3-------------------||
||-------------4-5-7--------------|----------------7-5---------------||
||-------4-6-7--------------------|--------------------9-7-6\4-------||
||-5-6-8--------------------------|----------------------------8-6-5-||


Figure 17:
||-------------------------------------|------------11-12-14-12-11\9---------|
||-------------------------------------|10-11-13/14------------------13-11---|
||----------------------------8-9-11/12|-------------------------------------|
||------------------7-8-10/11----------|-------------------------------------|
||---------6-7-9/10--------------------|-------------------------------------|
||-5-6-8/9-----------------------------|-------------------------------------|


|----------|---------------------------||
|-10\8-----|---------------------------||
|------11-9|8\6------------------------||
|----------|----10-8-7\5---------------||
|----------|-------------9-7-6\4-------||
|----------|---------------------8-6-5-||


Figure 18:
|------------------------------------------|------------16-17-19-17-16\14---
|------------------------------------------|14-15-17/19---------------------
|-------------------------------11-13-14/16|--------------------------------
|--------------------9-11-12/14------------|--------------------------------
|----------7-9-11/12-----------------------|--------------------------------
|-5-7-9/10---------------------------------|--------------------------------


------------------|------------------------------||
-17-15-14\12------|------------------------------||
-------------14-13|11\9--------------------------||
------------------|-----12-11-9\7----------------||
------------------|---------------11-9-7\5-------||
------------------|------------------------9-7-5-||

Figure 19:
|------------------------------------------|------------16-17-19-17-16\14---
|------------------------------------------|13-15-17/19---------------------
|-------------------------------11-13-14/16|--------------------------------
|--------------------9-10-12/14------------|--------------------------------
|----------7-9-11/12-----------------------|--------------------------------
|-5-7-8/10---------------------------------|--------------------------------


------------------|-------------------------------||
-17-15-13\12------|-------------------------------||
-------------14-13|11\9---------------------------||
------------------|-----12-10-9\7-----------------||
------------------|---------------11-9-7\5--------||
------------------|------------------------8-7-5--||


Figure 20:
|------------------------------------------|------------16-17-19-17-16\13---
|------------------------------------------|13-15-17/18---------------------
|-------------------------------10-13-14/16|--------------------------------
|--------------------9-10-12/14------------|--------------------------------
|----------7-8-11/12-----------------------|--------------------------------
|-5-7-8/10---------------------------------|--------------------------------


------------------|-------------------------------||
-17-15-13\12------|-------------------------------||
-------------14-13|10\9---------------------------||
------------------|-----12-10-9\7-----------------||
------------------|---------------11-8-7\5--------||
------------------|------------------------8-7-5--||


Figure 21:
|--------------------------17-20-17---------|-----------------||
|--------------------13-18----------18-13---|-----------------||
|--------------10-14----------------------14|10---------------||
|---------7-10------------------------------|---10-7----------||
|-----3-8-----------------------------------|--------8-3------||
|-1-5---------------------------------------|------------5-1--||

Figure 22:
|-------------------------|------------------------------------|------17-20-
|-------------------------|------------------------13-18-13----|13-18-------
|-------------------------|------10-14-10----10-14----------14-|------------
|----------------7-10-7---|-7-10----------10-------------------|------------
|----3-8-3---3-8--------8-|------------------------------------|------------
|1-5-------5--------------|------------------------------------|------------


-17----------17----------|----------------------------------|--------------||
----18-13-18----18-13----|-------13-------------------------|--------------||
----------------------14-|-10-14----14-10---------10--------|--------------||
-------------------------|----------------10-7-10----10-7---|-----7--------||
-------------------------|--------------------------------8-|-3-8---8-3----||
-------------------------|----------------------------------|-----------5-1||


Figure 23:
|---------------------9-11-9-------|---------------||
|----------------9-10--------10-9--|---------------||
|------------6-8------------------8|6--------------||
|--------6-7-----------------------|--7-6----------||
|----4-6---------------------------|------6-4------||
|-4-5------------------------------|----------5-4--||


Figure 24:
|---------------------------------|---------------------------------|----3-6
|---------------------------------|---------------------3-6-----6-8-|3-6----
|---------------------------------|-----3-5-----5-7-3-7-----5-7-----|-------
|---------------------3-5-----5-8-|-3-5-----5-8---------------------|-------
|-----3-5-----5-8-3-5-----5-8-----|---------------------------------|-------
|-3-6-----6-8---------------------|---------------------------------|-------

2
----6-8------8-10-------10-13-|-------13-15-------15-18-18b--rb13~--||
6-8-----8-11------11-13-------|-13-15-------15-18-------------------||
------------------------------|-------------------------------------||
------------------------------|-------------------------------------||
------------------------------|-------------------------------------||
------------------------------|-------------------------------------||


Figure 25:
|-----------------------------------|---------------------------------------
|-5-4-----8-5-----9-8-----12-9------|-13-12-------16-13-------17-16---------
|-----5-4-----8-5-----9-8------12-9-|-------13-12-------16-13-------17-16---
|-----------------------------------|---------------------------------------
|-----------------------------------|---------------------------------------
|-----------------------------------|---------------------------------------


-------------|-----------------------------------------------|--------------
-20-17-------|-17-16-------16-13-------13-12-------12-9------|-9-8-----8-5--
-------20-17-|-------17-16-------16-13-------13-12------12-9-|-----9-8------
-------------|-----------------------------------------------|--------------
-------------|-----------------------------------------------|--------------
-------------|-----------------------------------------------|--------------


---------------------||
-----5-4-----4-1-----||
-8-5-----5-4-----4-1-||
---------------------||
---------------------||
---------------------||


Figure 26:
|-----------------------------------------------|---------------------------
|------9-12-------12-15-------15-18-------12-15-|-------15-18-------18-21---
|-9-10------12-13-------15-16-------12-13-------|-15-16-------18-19---------
|-----------------------------------------------|---------------------------
|-----------------------------------------------|---------------------------
|-----------------------------------------------|---------------------------


-------------------------||
-------15-18-------12-15-||
-15-16-------12-13-------||
-------------------------||
-------------------------||
-------------------------||


Figure 27:
|-------1-3-5-------3-5-7|------5-7-8--------7-8-10|--------8-10-12----------
|-1-3-5-------3-5-6------|5-6-8-------6-8-10-------|8-10-12---------10-12-13-
|------------------------|-------------------------|-------------------------
|------------------------|-------------------------|-------------------------
|------------------------|-------------------------|-------------------------
|------------------------|-------------------------|-------------------------


-10-12-13|---------12-13-15-----||
---------|12-13-15----------13~-||
---------|----------------------||
---------|----------------------||
---------|----------------------||
---------|----------------------||


Figure 28:
|-15-13-------------13-12-------------|12-10------------10-8-----------|8-7-
|-------17-15-13\12-------15-13-12\10-|------13-12-10\8------12-10-8\6-|----
|-------------------------------------|--------------------------------|----
|-------------------------------------|--------------------------------|----
|-------------------------------------|--------------------------------|----
|-------------------------------------|--------------------------------|----


----------7-5---------|5-3---------3-1------------||
-10-8-6\5-----8-6-5\3-|----6-5-3\1-----5-3-1-0-1~-||
----------------------|---------------------------||
----------------------|---------------------------||
----------------------|---------------------------||
----------------------|---------------------------||
 
Eigenschaft
 
A
Andreas Gerhard
Registrierter Benutzer
Zuletzt hier
19.03.19
Registriert
04.03.05
Beiträge
1.084
Kekse
611
Ort
Goldbach
da haste schon ziemlich viele Dinge drin, wenn du wirklich den ganzen Krempel täglich paar mins machst dürfte das schon gut sein ;)
 
brinke
brinke
Registrierter Benutzer
Zuletzt hier
16.07.19
Registriert
15.11.05
Beiträge
273
Kekse
2.875
Ort
Wolfsburg
du hast zwar oben die symbole für hammer ons, pull offs, etc..., aber in den noten sehe ich davon nix ! :confused:
wenn du die übungen schon machst, solltest du auch wissen, wann du diese spieltechniken einsetzt.
 
GentleGiant
GentleGiant
Registrierter Benutzer
Zuletzt hier
20.09.10
Registriert
04.11.03
Beiträge
321
Kekse
205
Ort
Renningen (bei Stuttgart)
setz deine tabs mal in ["CODE"]["/CODE"] tags... (ohne die anführungszeichen.)
 
Hellfast
Hellfast
Registrierter Benutzer
Zuletzt hier
14.09.14
Registriert
18.02.06
Beiträge
161
Kekse
86
Ort
Salzburg/Österreich
Ich würd mal sagen Pentatoniken üben, Hammet spielt sehr viele Solis aus der Pentatonik, und natürlich die Bendings müssen sitzen !!!Alles klar!?
 
Pablo Gilberto
Pablo Gilberto
Gesperrter Benutzer
Zuletzt hier
05.11.13
Registriert
17.09.04
Beiträge
733
Kekse
1.200
Ort
Toyland
Kann jemand das Code-Gewusel daoben mal zu ner Guitar Pro(4) Datei zusammenfassen? Bütte, bütte, bütte *liebguck*:D
 
M
Maxi
Registrierter Benutzer
Zuletzt hier
02.01.22
Registriert
04.09.05
Beiträge
4.004
Kekse
5.790
warum möchtegern kirk hammet das können von dem kann man ja durhcaus ereichen...
vorallem wenn man ein Wah-Wah hat *g+!
 

Ähnliche Themen


Neue Themen

Unser weiteres Online-Angebot:
Bassic.de · Deejayforum.de · Sequencer.de · Clavio.de · Guitarworld.de · Recording.de

Musiker-Board Logo
Oben