Master of Puppets

von roemer, 06.07.04.

  1. roemer

    roemer Registrierter Benutzer

    Im Board seit:
    31.05.04
    Zuletzt hier:
    31.12.12
    Beiträge:
    402
    Ort:
    In einer Höhle
    Zustimmungen:
    0
    Kekse:
    3.016
    Erstellt: 06.07.04   #1
    Hallo wie spiel ich das? 12h 14p... etc.
    Ich hab mal angefangen und allzu schwer is es nicht, aber ich komme nicht weiter bei diesen h und p, also weiter schon aber es klingt nicht wies sollte, was bedeuten diese hs und ps und wie spielt man sowas? :cool:


    |------19--15-----17--14-------------17--14----15--12-------------15--12---
    |--17---------17---------15---15-15---------15--------13---13-13---------13
    |--------------------------------------------------------------------------
    |--------------------------------------------------------------------------
    |--------------------------------------------------------------------------
    |--------------------------------------------------------------------------

    |--14--12h14p12/11---------------12--14--15-----|
    |------------------12--13--14--15---------------| Play this twice
    |-----------------------------------------------| then play
    |-----------------------------------------------|
    |-----------------------------------------------|
    |-----------------------------------------------|

    |---------------------17p14----17p14---------------------------------------
    |--17--17-19-20-19-20-------15-------15--13-----16b-16b--20p19----20p19----
    |--------------------------------------------------------------19-------19-
    |--------------------------------------------------------------------------
    |--------------------------------------------------------------------------
    |--------------------------------------------------------------------------

    |--------------------------------------------------------------------------
    |--20----------------------------------------------------------------------
    |-----19----16h17-16-----------------14----------14------------------------
    |--------------------17--14-14h16-17----17-16-------16---------------------
    |---------------------------------------------17-------15---14h15-17-15-14-
    |--------------------------------------------------------------------------

    |----------------------------------------|
    |----------------------17p16-14--12--15--| then play the first bit again
    |------------17p16-14--------------------|
    |--17p16-14------------------------------|
    |----------------------------------------|
    |----------------------------------------|


    Vielen Dank! :D
     
  2. Dizzy Reed

    Dizzy Reed Registrierter Benutzer

    Im Board seit:
    06.02.04
    Zuletzt hier:
    21.10.08
    Beiträge:
    472
    Zustimmungen:
    2
    Kekse:
    142
    Erstellt: 06.07.04   #2
  3. roemer

    roemer Threadersteller Registrierter Benutzer

    Im Board seit:
    31.05.04
    Zuletzt hier:
    31.12.12
    Beiträge:
    402
    Ort:
    In einer Höhle
    Zustimmungen:
    0
    Kekse:
    3.016
    Erstellt: 06.07.04   #3
    Danke für den Link!
    Ich bin nicht faul :D Ich hab mal nachgeschaut und auch was gefunden, aber nur die bezeichnungen, nicht wie man es spielt. des weiteren hab ich unterschiedliche bezeichnungen gesehen was micht dann halt verwirrt, hat und dann ja ein Zeichen de faulheit, hab ich halt gepostet :D
    Tut mir echt fett krass sorry ;)
     
  4. Disposable Hero

    Disposable Hero Registrierter Benutzer

    Im Board seit:
    30.06.04
    Zuletzt hier:
    7.08.10
    Beiträge:
    859
    Ort:
    Chemnitz
    Zustimmungen:
    1
    Kekse:
    280
    Erstellt: 06.07.04   #4
    h bedeutet Hammer - On und p bedeutet Pull Off...aber wenn du diese Begriffe nicht kennst solltest du vielleicht nicht gleich Master of Puppets angehn...durch such mal das forum nach hammer on und pull off

    PS:
    MASTER

    MASTER

    Ich liebe dieses Lied...
     
  5. roemer

    roemer Threadersteller Registrierter Benutzer

    Im Board seit:
    31.05.04
    Zuletzt hier:
    31.12.12
    Beiträge:
    402
    Ort:
    In einer Höhle
    Zustimmungen:
    0
    Kekse:
    3.016
    Erstellt: 06.07.04   #5
    Hja! echt geiler song :rock: hab ezt auch begriffen was pull off und hammer on is :D
    hab gar nicht drauf geachtet hab angefangen und auf einmal kam dieses h und p und wenn mans bis dahin schon kann, dann is es echt schade schluss zumachen :D und wenn man mal ins original reinhört und sich dann dieses p und h anschaut und diese nicht kenn, dann fragt man sich halt: Was macht der typ da bloss :confused: hehehe aber dat wird schon ;)
     
  6. nike_esp

    nike_esp Registrierter Benutzer

    Im Board seit:
    30.04.04
    Zuletzt hier:
    29.04.13
    Beiträge:
    3.054
    Zustimmungen:
    1
    Kekse:
    414
    Erstellt: 06.07.04   #6
    Wielange spielst du schon Gitarre ? ... dann schon MOP :rock:
     
  7. roemer

    roemer Threadersteller Registrierter Benutzer

    Im Board seit:
    31.05.04
    Zuletzt hier:
    31.12.12
    Beiträge:
    402
    Ort:
    In einer Höhle
    Zustimmungen:
    0
    Kekse:
    3.016
    Erstellt: 06.07.04   #7
    Ich hab die Gitarre am 5. Juni (also knapp ein monat her) gekauft :D
    und hatte vorher noch nie ne Gitarre in der hand :frown:
    hatte halt nie geld um eine zu kaufen, und hab mir dann endlich mein traum erfüllt :rock:
    hm, ich seh da keine schwierigkeiten, bis jetzt, es braucht halt übung.
    Ich such mir halt immer tabs raus, wenn ich wieder ein tolles lied höre und spiel dann einfach drauflos.
     
  8. -N-O-F-X-

    -N-O-F-X- Registrierter Benutzer

    Im Board seit:
    09.10.03
    Beiträge:
    4.804
    Zustimmungen:
    779
    Kekse:
    7.516
    Erstellt: 06.07.04   #8
    am tempo haperts aber noch oder? oder schaffst du des scho original? hast du en lehrer?
     
  9. roemer

    roemer Threadersteller Registrierter Benutzer

    Im Board seit:
    31.05.04
    Zuletzt hier:
    31.12.12
    Beiträge:
    402
    Ort:
    In einer Höhle
    Zustimmungen:
    0
    Kekse:
    3.016
    Erstellt: 06.07.04   #9
    1. Ja tempo is nicht da, aber ich spiel momentan nur akkustisch hab gestern mit dem song angefangen.
    2. Nein hab kein Lehrer, brauch ich auch nicht :D
     
  10. -N-O-F-X-

    -N-O-F-X- Registrierter Benutzer

    Im Board seit:
    09.10.03
    Beiträge:
    4.804
    Zustimmungen:
    779
    Kekse:
    7.516
    Erstellt: 06.07.04   #10
    naja... langsam angehn bis mans sauber kan und dann tempo steigern ;)
     
  11. Revan

    Revan Registrierter Benutzer

    Im Board seit:
    16.05.04
    Zuletzt hier:
    22.09.04
    Beiträge:
    191
    Zustimmungen:
    1
    Kekse:
    28
    Erstellt: 06.07.04   #11
    Also ehrlichgesagt würd ich an deiner stelle mit Master of Puppets aufhören das kriegst du nie hin, wenn du die Gitarre erst seit einem Monat hast, dir fehlen die ganzen Grundlagen, außerdem ich bezweifle, dass du in absebarer Zeit den Song in brauchbarer Geschwindigkeit udn sauber spielen könenn wirst. Tut mir leid aber nach einem Monat ist das noch ein ganzes Stück zu schwer, dass denk ich halt, man sollte klein anfangen und sich dann steigern.

    mfg
     
  12. roemer

    roemer Threadersteller Registrierter Benutzer

    Im Board seit:
    31.05.04
    Zuletzt hier:
    31.12.12
    Beiträge:
    402
    Ort:
    In einer Höhle
    Zustimmungen:
    0
    Kekse:
    3.016
    Erstellt: 06.07.04   #12
    |--14--12h14p12/11-------------------12--14--15-----|
    |------------------------12--13--14--15---------------|


    hab halt noch n bisschen mühe mit disem part
    ich hoff mal ich versteh das richtig
    12 anschlagen dann hammer on 14(muss ich dann nochmal anschlagen? ned oder?) dann pull off 12 und ohne anschlagen auf 11 sliden kommt mir komisch vor 1mal anschlagen für 4töne. ich hoff mal 's stimmt...

    @Revan
    das glaub ich dir gerne, das mit der Geschwindigkeit, hab ich auch nicht vor :D Muss immer alles 1:1 nachgespielt sein? Ich find die Melodie klasse und die kann man auch langsam spielen :D
    ich arbeite mal auf n paar songs hin, das ich mal einige spielen kann nicht 1:1 immer das selbe is langweilig, wenn man n bisschen abwechslung hat machts mehr spass, immer auf den ersten 5 bünden spielen wenns noch 19 ander gibt :confused: :D
     
  13. nike_esp

    nike_esp Registrierter Benutzer

    Im Board seit:
    30.04.04
    Zuletzt hier:
    29.04.13
    Beiträge:
    3.054
    Zustimmungen:
    1
    Kekse:
    414
    Erstellt: 06.07.04   #13
    stimmt aber so ... :rock:
     
Die Seite wird geladen...

mapping