Nena - Der Mond ist aufgegangen w/Sound

von BlairWitchDK, 20.06.07.

  1. BlairWitchDK

    BlairWitchDK Registrierter Benutzer

    Im Board seit:
    11.02.06
    Zuletzt hier:
    20.12.14
    Beiträge:
    8
    Zustimmungen:
    1
    Kekse:
    10
    Erstellt: 20.06.07   #1
    Hallo !
    Ich habe eine sehr schöne Version von "Der Mond ist aufgegangen" gefunden. Nun ist es eigentlich ein leichtes Noten zu diesem Lied zu bekommen. Aber ich suche ein bestimmtes Guitar Picking zu der Version von Nena.
    Ich habe eine kleine Soundfile angefügt ,wo dieses Picking gut zu hören ist, leider finde ich nicht heraus wie es gespielt wird.

    Vielleicht könnte jemand die Tabs posten zu diesem Picking.

    Vielen Dank schon mal. :great:

    Hier die File zum Download
    http://www.gitarrenboard.de/useraction.php?action=get_upload&id=2373
     
  2. BlairWitchDK

    BlairWitchDK Threadersteller Registrierter Benutzer

    Im Board seit:
    11.02.06
    Zuletzt hier:
    20.12.14
    Beiträge:
    8
    Zustimmungen:
    1
    Kekse:
    10
    Erstellt: 13.10.07   #2
    kann niemand helfen ?
     
  3. DavidH

    DavidH Registrierter Benutzer

    Im Board seit:
    26.07.06
    Zuletzt hier:
    31.12.14
    Beiträge:
    227
    Zustimmungen:
    0
    Kekse:
    152
    Erstellt: 14.10.07   #3
    Ich hab hier mal das Intro und die ersten Takte in der Strophe:

    Code:
    Spur 1
                                                        NH     
         E  E  E  E  E  E  E  E     E  E  E  E  E  E    E  E   
    E||-----------0--------------|-----------0----------------|
    B||--------------------------|----------------------------|
    G||--------2--------2--------|--------2--------2----------|
    D||-----2--------------2-----|-----2--------------<>5--2--|
    A||--0-----------0--------0--|--0-----------0-------------|
    E||--------------------------|----------------------------|
    
    
      E  E  E  E  E  E  E  E     E  E  E  E  H           E  E  E  E  E  E  E  E   
    -----------0--------------|-----------0--L--------|--------------------------|
    --------------------------|-----------------------|-----------2--L-----------|
    --------2--------2--------|--------2--------------|--------2--------2--------|
    -----2--------------2-----|-----2-----------------|-----2--------------2-----|
    --0-----------0--------0--|--0--------------------|--0--------------------0--|
    --------------------------|-----------------------|--------------------------|
    
    
      E  E  E  E  Q    E  E     E  E  E  E  H          
    -----------0-------------|-----------------------||
    -------------------2-----|-----------2-?---------||
    --------2----------------|--------2----?---------||
    -----2-------------------|-----2-------?---------||
    --0-----------0-------0--|--0----------?---------||
    -------------------------|-----------------------||
    
    
    
    
    Duration Legend
    ---------------
    W - whole
    H - half
    Q - quarter
    E - 8th
    S - 16th
    
    <> Oberton
    L  Note halten
    
    Gruß,
    David
     
Die Seite wird geladen...

mapping