Rammstein-Seemann Fingersatz?

von Darkninja, 19.09.05.

  1. Darkninja

    Darkninja Registrierter Benutzer

    Im Board seit:
    30.06.05
    Zuletzt hier:
    22.07.13
    Beiträge:
    509
    Ort:
    München
    Zustimmungen:
    0
    Kekse:
    30
    Erstellt: 19.09.05   #1
    Hallo,
    Gleich ma am anfang: SUFU hat nix brauchbares ausgespuckt.

    Alsoo,die basslinie von Seemann krieg ich nie wirklich flüssig hin,
    da ich irgendwie einen umständlichen fingersatz benutze,allerdings
    find ich auch keinen neuen(besseren) soviel ich auch versuche.:(
    Ich kann meinen jetzt hier nicht zeigen,aber mich würde interessieren
    wie ihr dieses stück hinbekommt(mit welchem fingersatz.

    Mfg darkninja
     
  2. doctorevil

    doctorevil Registrierter Benutzer

    Im Board seit:
    27.12.04
    Zuletzt hier:
    10.05.13
    Beiträge:
    477
    Ort:
    RheinMainGebiet
    Zustimmungen:
    1
    Kekse:
    331
    Erstellt: 19.09.05   #2
    Schätze der Anfang macht am meisten Probleme

    --------18-------------16---------------14-------------13--------------
    ----14-----14------14------14------14------14 -----14-----14-------------
    12--------------12-------------12---------------12-------------------
    ---------------------------------------------------------------------

    z m k m z m z m z m r m z r m r


    und so weiter... hilft das schon?
     
  3. Aqua

    Aqua Mod Emeritus Ex-Moderator

    Im Board seit:
    22.08.03
    Zuletzt hier:
    28.07.06
    Beiträge:
    3.333
    Ort:
    Berlin
    Zustimmungen:
    5
    Kekse:
    861
    Erstellt: 19.09.05   #3
    Servus!
    Schön das du jedenfalls gesucht hast! :great:
    Tja, und welcher ist das? Was heißt bei dir eigentlich Fingersatz?
    Meinst du die Abfolge der Noten?

    Oder die Art zu greifen? Da gibt es auf dem Bass die Möglichekeit den Gitarrenfingersatz zu nehmen, oder seltener, den Kontrabassfingersatz.
    Jedoch glaube ich nicht das das etwas mit deinen Problem zu tun hat.
    Wie oben gesagt, gibt ja auch nur zwei Fingersätze für den Bass.
    Und warum nicht?
    Du meinst wahrscheinlich eine Tabulatur?!!

    Wie wäre es denn damit:
    Code:
    -------18---------16---------14---------
    ----14----14---14----14---14----14---14-
    --0----------0----------0----------0----
    ----------------------------------------
    									 
    -------11--------11--------13--------13-
    -----9----9----9----9----9----9----9----
    --11--------11--------11--------11------
    ----------------------------------------
    									 
    -------14---------13---------11---------
    ----11----11---11----11---11----11---11-
    --9----------9----------9----------9----
    ----------------------------------------
    									 
    ----------------------------------------
    -------11---------10---------11---------
    ----11----11---11----11---11----11---11-
    --9----------9----------9----------9----
    
     
  4. Fastel

    Fastel Helpful & Friendly User HFU

    Im Board seit:
    11.04.04
    Zuletzt hier:
    29.11.16
    Beiträge:
    5.925
    Ort:
    Tranquility Base
    Zustimmungen:
    565
    Kekse:
    18.025
    Erstellt: 19.09.05   #4
    naja wenn du uns deinen nicht zeigen kannst wie können wir dir dann unseren zeigen? :D
    du müsstest konkret werden an welcher stelle es direkt hapert.
    ich greife die ersten stellen so:
    zeigefinger: macht barree im bund 14 über die saite D und G;
    Mittel: G bund Nr. 16
    Kleiner; Bund Nr. 18
    dann zupfst du gewohnt und nimmst bei jedem durchgang zuerst den kleinen und dann den mittelfinger weg... bis du den Barree(zeige b. 14) durchgespielt hast. dann dürfte die stelle kommen:
    ------13---- Z
    ---14---14-- M
    -0----------
    ------------

    jetzt die imho schwierigste stelle die ach am meisten übung erfordert jeweils 2 mal spielen:
    ------11------ <= R| -------13----- <= K
    ----9----9---- <= Z| -----9---9---- <= Z
    -11-------11-- <= M| -11-------11- <= M
    -------------- ...... ----------------

    hier ist dann ein großer spagat gefragt (jedenfalls für mich da ich alle saiten gedrückt halte):
    ------14---------- <= K ... auf der G saite danach die 13(K); 11(R); 9 (barree zeigefinger)
    ---11----11------ <= M
    -9----------9---- <= Z
    -----------------

    und zuletzt:
    --------------
    ------11------ (R)
    ---11----11--- (M)
    -9----------9- (Z)

    so nun ist mein tee kalt geworden :(
    ich hoffe dass es dich weitergebracht hat

    edit: argh alle schneller als ich
     
  5. Darkninja

    Darkninja Threadersteller Registrierter Benutzer

    Im Board seit:
    30.06.05
    Zuletzt hier:
    22.07.13
    Beiträge:
    509
    Ort:
    München
    Zustimmungen:
    0
    Kekse:
    30
    Erstellt: 19.09.05   #5
    @doctorevil und aqua
    tschuldigung:o .Da hab ich mich wohl etwas unvorteilhaft ausgedrückt.
    Mit fingersatz meinte ich welcher finger,welchen bund bei diesem lied
    greift.
    @fastel
    yo genauso meinte ich das.Hast mir sehr weitergeholfen.
    Dankeschön.:)

    P.S.
    Weil ich keine ahnung habe wie ich zum beispiel das mit dem CODEzeugs
    mache :D .
     
Die Seite wird geladen...

mapping