Red Hot Chilli Peppers (Snow)

von Brokensword, 02.03.07.

  1. Brokensword

    Brokensword Registrierter Benutzer

    Im Board seit:
    09.02.06
    Zuletzt hier:
    20.05.12
    Beiträge:
    165
    Zustimmungen:
    0
    Kekse:
    55
    Erstellt: 02.03.07   #1
    Hi,

    ich versuche ab und zu den Hauptriff zu spielen


    |--3--| |--3--|
    S S S S S S S S S S S S S S S S S S
    E||------------------------------------------|
    B||------------------------------------------|
    G||------4---4h-6p-4---4-----4---4h-6p-4---4-|
    D||----6---6---------6-----6---6---------6---|
    A||--6-------------------7-------------------|
    E||------------------------------------------|

    |--3--| |-3-|
    S S S S S S S S S S S S S S S S S S
    ----------------------------------------|
    ----------------------------------------|
    --------------------------6---6-8-6---6-|
    ------4---4h-6p-4---4---8---8-------8---|
    ----6---6---------6---9-----------------|
    --7-------------------------------------|

    (sorry irgendwie verschiebt sich der tab immer)

    aber irgendewie greif ich falsch und werd immer langsamer, weil da die Finger so richtig verkrampfen und auch ein bissl wehtun.
    Also wie spielt ihr den Riff
    haltet ihr einen Bare oder nur eine Seite halten.

    also für ein paar tipps währe ich sehr dankbar, will nämlich das Stück mit der Band proben
     
  2. reaper_cob

    reaper_cob Registrierter Benutzer

    Im Board seit:
    02.03.06
    Zuletzt hier:
    31.12.09
    Beiträge:
    298
    Ort:
    Mülheim an der Ruhr
    Zustimmungen:
    0
    Kekse:
    74
  3. NonSense

    NonSense Registrierter Benutzer

    Im Board seit:
    06.09.06
    Zuletzt hier:
    26.11.13
    Beiträge:
    40
    Ort:
    Karlsruhe
    Zustimmungen:
    0
    Kekse:
    10
    Erstellt: 02.03.07   #3
    ich drück jede saite einzeln..
    das wirst du zwar nich wirklich gerne hörn, aber das mit den schmerzen und dem langsamer werden wird von zeit zu zeit besser ->üben,üben und nochmals üben..

    In der Band würde ichs aber nicht unbedingt spielen wollen, da es wirklich schwierig ist den rhythmus solange korrekt zu halten..
    aber das müsst ihr selbst wissen ;)

    Edit:Da war wer etwas schneller als ich ^^
     
  4. Brokensword

    Brokensword Threadersteller Registrierter Benutzer

    Im Board seit:
    09.02.06
    Zuletzt hier:
    20.05.12
    Beiträge:
    165
    Zustimmungen:
    0
    Kekse:
    55
    Erstellt: 02.03.07   #4
    ok thx
    anscheinend bin nicht der einzige der da probleme damit hat ^^

    ach ja das mit den schmerzen
    da hab ich mal in nem Scalerun-Tutorial gelesen, dass man bei schmerzen aufhören sollte

    naja wie heist es so schön "no pain no gain"
     
Die Seite wird geladen...

mapping