Refrain-Melodie von "We Are The Champions"

von juan, 01.03.06.

  1. juan

    juan Registrierter Benutzer

    Im Board seit:
    13.11.05
    Zuletzt hier:
    17.10.07
    Beiträge:
    508
    Zustimmungen:
    0
    Kekse:
    116
    Erstellt: 01.03.06   #1
    Hi,

    Ich versuche schon seit einiger Zeit die Melodie vom "We Are The Champions"-Refrain rauszuhören und gescheit zu tabben, weil ich ihn in ein Solo einbauen möchte. Nur leider krieg ichs nicht gebacken.
    Nun wollte ich fragen ob irgendwer evtl. davon Tabs hat oder es vielleicht selbst mal rausgehört hat.
    Es gingen natürlich auch Noten, dass würde ich dann schon hinkriegen aufs Griffbrett zu übertragen :)

    Danke schon mal!
     
  2. Cornholio

    Cornholio Registrierter Benutzer

    Im Board seit:
    06.12.04
    Zuletzt hier:
    2.10.16
    Beiträge:
    2.423
    Zustimmungen:
    1
    Kekse:
    3.182
    Erstellt: 01.03.06   #2
  3. juan

    juan Threadersteller Registrierter Benutzer

    Im Board seit:
    13.11.05
    Zuletzt hier:
    17.10.07
    Beiträge:
    508
    Zustimmungen:
    0
    Kekse:
    116
    Erstellt: 01.03.06   #3
    aber das kostet doch guitar pro oder?


    EDIT: die anderen Tabs von dem song hab ich schon auch gefunden. Ich hab mich wohl etwas falsch ausgedrückt, ich suche die melodie des Gesanges, nicht was die Gitarre original in dem Song spielt.
     
  4. Cornholio

    Cornholio Registrierter Benutzer

    Im Board seit:
    06.12.04
    Zuletzt hier:
    2.10.16
    Beiträge:
    2.423
    Zustimmungen:
    1
    Kekse:
    3.182
    Erstellt: 01.03.06   #4
    Testversion...
    Die schönen Dinge des Lebens kann man nicht bezahlen.
    Achso, Schuldigung, vergiss alles :o
    Das ist doch aber echt nicht schwer :eek:? Vielleicht hilft dir ein Chorus aus einem GPTab ein wenig.

    Code:
    [SIZE="1"] Q.     Q    E  Q.     Q    E     Q.     Q     E  Q.     Q.      
    --------------------------------|--------------------------------|
    ---------1--------------5-------|---------6----------------------|
    ---------2--------------5-------|---------7S-------3------5------|
    ---------3--------------7-------|---------7--------3------5------|
    --------------------------------|--5---------------1------3------|
    --1-----------3--5------5----5--|--------------------------------|
    
      Q.     Q    E  Q.     Q    E     Q.     E  E  E  Q    E  E  Q     
    --------------------------------|----------------------------------|
    ---------1--------------5-------|---------6------------------------|
    ---------2--------------5-------|---------7-------------2--L--2----|
    ---------3--------------7-------|---------8-------------1--L--0----|
    --------------------------------|----------------------------------|
    --1-----------3--5------5----5--|--6------6--5--3--2---------------|
    
      Q.     Q    E  Q.     Q.        Q.     Q    E  Q.      Q.       
    -------------------------------|---------------------------------|
    -------------------------------|---------------------------------|
    -------------------------------|---------------------------------|
    -------------------------------|--8------7----8--7---------------|
    --5----------------------------|--8---------------------10S------|
    --3------5----6--5------3------|--6------------------------------|
    
      H.           H.              H.           H.              S S Q    Q.      
    ----------------------------|----------------------------|------------------|
    ----------------------------|----------------------------|--6-6-6----L------|
    ----------------------------|----------------------------|--8-8-8----L------|
    ----------------------------|----------------------------|--8-8-8----L------|
    ----------------------------|----------------------------|------------------|
    --1------------3------------|--4------------6------------|--8-8-8----L------|
    
      Q.     E  E  E  Q.     E  E  E     Q.     Q     E  E  Q    E  Q     
    ----------------------------------|----------------------------------|
    ---------1---------------5--------|---------6------------------------|
    ---------2---------------5--------|---------7S-------3--3----5--5----|
    ---------3---------------7--------|---------7--------3--3----5--5----|
    ----------------------------------|--5---------------1--1----3--3----|
    --1------------3--5------------5--|----------------------------------|
    
      Q.     E  E  E  Q.     Q.        Q.     E  E  E  Q    E  E  E  E   
    --------------------------------|-----------------------------------|
    ---------1---------------5------|-----------------------------------|
    ---------2---------------5------|-----------------------------2--0--|
    ---------3---------------7------|-----------------------1--0--------|
    --------------------------------|-----------------------------------|
    --1------1--1--3--5------5------|--6------L--5--3--2----------------|
    
      Q.     Q    E  Q.     Q.        Q.     Q    E  Q.      Q.       
    -------------------------------|---------------------------------|
    -------------------------------|---------------------------------|
    -------------------------------|---------------------------------|
    -------------------------------|--8------7----8--7---------------|
    --5----------------------------|--8---------------------10S------|
    --3------5----6--5------3------|--6------------------------------|
    
      Q.     Q    E  Q.     Q    E     Q.     Q    E  Q.     Q.      
    --------------------------------|-------------------------------|
    --------------------------------|-------------------------------|
    --2-----------3--2-----------2--|--1-----------3--1-------------|
    ---------3--------------3-------|---------3--------------3------|
    --------------------------------|-------------------------------|
    --------------------------------|-------------------------------|
    
      S S Q    Q.     H.             
    -------------------------------||
    --6-6-6----L------L------------||
    --8-8-8----L------L------------||
    --8-8-8----L------L------------||
    -------------------------------||
    --8-8-8----L------L------------||[/SIZE]
     
  5. AndreasW

    AndreasW Registrierter Benutzer

    Im Board seit:
    16.05.05
    Zuletzt hier:
    8.10.14
    Beiträge:
    1.469
    Ort:
    Hamburg
    Zustimmungen:
    4
    Kekse:
    2.972
    Erstellt: 01.03.06   #5
    Here it is:
    Code:
    We Are The Champions (Queen) - Refrain
    
         H.           E.  T  T    Q.     S.  S.T  E   Q    T  
    E||---------------------13-|--L------L--12---13--12------|
    B||------------------------|-----------------------------|
    G||------------------------|-----------------------------|
    D||------------------------|-----------------------------|
    A||------------------------|-----------------------------|
    E||------------------------|-----------------------------|
    
    
       Q    S S  E   E.  T  Q    T    T H.           S.  S.T  
    -------------------------------|-------------------------|
    --13----L-------15---L---------|--------------------13---|
    ------------14---------14----L-|--L----------------------|
    -------------------------------|-------------------------|
    -------------------------------|-------------------------|
    -------------------------------|-------------------------|
    
    
       Q.     S S  S. E  T  E.  T  T    E.  T T  E   E   Q.     S. T  
    --13------L---15-17----20---L-17-|--L---L------------------------|
    ---------------------------------|--------------17---------------|
    ---------------------------------|----------19------19------L----|
    ---------------------------------|-------------------------------|
    ---------------------------------|-------------------------------|
    ---------------------------------|-------------------------------|
    
    
      H.           E.  T  T    Q    S.  Q     E   Q    T  
    ------------------------|----------------------------|
    ------------------------|----------------------------|
    ---------------------19-|--L----L--17----19--17----L-|
    ------------------------|----------------------------|
    ------------------------|----------------------------|
    ------------------------|----------------------------|
    
    
      S.  E.  T E  T  Q.      E  T    S.  E   Q.      Q    T S.  T  
    -----------------18------17--L-|--L--18--17------15----L----17-|
    -------------------------------|-------------------------------|
    --L--15---L--------------------|-------------------------------|
    -------------------------------|-------------------------------|
    -------------------------------|-------------------------------|
    -------------------------------|-------------------------------|
    
    
      Q    S. Q     E   Q    T    S.  E.  T T  E   Q.      E  T  
    --L----L-------18--17----L-|--L-----------18--16------------|
    ---------------------------|-----18---L---------------18--L-|
    ---------------------------|--------------------------------|
    ---------------------------|--------------------------------|
    ---------------------------|--------------------------------|
    ---------------------------|--------------------------------|
    
    
      S T  E   Q.      Q.     T    Q.     S.  S. S T  Q    S.    W                 
    ------18--16----------------|-----------------------------|-------------------|
    --L---------------18------L-|------------16------18----L--|--L----------------|
    ----------------------------|---------------17------------|-------------------|
    ----------------------------|-----------------------------|-------------------|
    ----------------------------|-----------------------------|-------------------|
    ----------------------------|-----------------------------|-------------------|
    
    
      H        S Q.     S   
    ----------------------||
    --L--------L----------||
    ----------------------||
    ----------------------||
    ----------------------||
    ----------------------||
    
    
    
    
    Duration Legend
    ---------------
    W - whole
    H - half
    Q - quarter
    E - 8th
    S - 16th
    T - 32nd
    X - 64th
    . - note dotted
    |-n-|  - n-tuplets
    
    
    Tablature Legend
    ----------------
    L - tied note
    x - dead note
    g - grace note
    (n) - ghost note
    > - accentuded note
    NH - natural harmonic
    AH - artificial harmonic
    TH - tapped harmonic
    SH - semi harmonic
    PH - pitch harmonic
    h - hammer on
    p - pull off
    b - bend
    br - bendRelease
    pb - preBend
    pbr - preBendRelease
    brb - bendReleaseBend
    \n/ - tremolo bar dip
    \n - tremolo bar dive
    -/n - tremolo bar Release up
    /n\ - tremolo bar inverted dip
    /n - tremolo bar return
    -\n - tremolo bar Release down
    S - shift slide
    s - legato slide
    / -  slide into from below or out of upwards
    \ -  slide into from above or out of downwards
    ~ - vibrato
    W - wide vibrato
    tr - trill
    TP - tremolo picking
    T - tapping
    S - slap
    P - pop
    < - fade in
    ^ - brush up
    v - brush down
    
    Wenn du noch mehr oder ein "handlicheres Format" brauchst,
    sag' bescheid.;):D


    Andreas
     
  6. juan

    juan Threadersteller Registrierter Benutzer

    Im Board seit:
    13.11.05
    Zuletzt hier:
    17.10.07
    Beiträge:
    508
    Zustimmungen:
    0
    Kekse:
    116
    Erstellt: 01.03.06   #6
    das ist schon mal super vielen dank... damit kann ich schon besser rumspielen :)
     
Die Seite wird geladen...

mapping