Reno911 titel song

von Wollschaf, 29.06.04.

  1. Wollschaf

    Wollschaf Registrierter Benutzer

    Im Board seit:
    09.06.04
    Zuletzt hier:
    2.08.04
    Beiträge:
    41
    Ort:
    Berlin
    Zustimmungen:
    0
    Kekse:
    10
    Erstellt: 29.06.04   #1
    Hi Leute ich bräuchte mal eure Hilfe bei einem Song ,der eigentlich nicht sehr schwer ist aber ziemlich schnell...ich habe mich mal daran versucht den Anfang zu tabben. es sind nur 5 chords..mehr find ich nich raus.
    Also wer diese Serie kennt bitte melden und hier posten oder selbst was tabben. Bitte keine dummen kommentare wie "die serie ist scheiße" oder "such doch selbst" son müll könnt ihr für euch behalten und euch euren teil denken...postet dann lieber garnichts!

    hier meine tab

    e-|-------------------------------------------------|
    B-|-------------------------------------------------| 4X
    G-|---------------------------8-8-8--10-10-10-----|
    D-|-5-5-5--8-8-8--10-10-10--8-8-8--10-10-10-----|
    A-|-5-5-5--8-8-8--10-10-10--6-6-6--8--8--8------|
    E-|-3-3-3--6-6-6--8--8--8------------------------|



    am Anfang spielt eigentlich 2x der Bass aber die Gitarre spielt das gleiche zur Unterstützung mit.

    ps.
    Ich habe überall gesucht ob ich mir das lied irgendwo laden kann etc. ich finde es nirgends. dann wäre es nämlich auch kein problem es leichter und schneller rauszuhören.

    danke schon mal für eure hilfe ;)
    ciaooo

    pps. Heute ist wiede Reno time ;) 22:00 auf Kabel1 nid verpassn +g+ vllt könnt ihrs ja da raushören


    -edit- hab gerad noch nen riff ausm gedächnis geholt das wäre dieser hier. der leitet den break ein.

    e-|----------|
    B-|----------| 4X
    G-|----------|
    D-|--3-5-5---|
    A-|--3-5-5---|
    E-|--1-3-3---|
     
  2. Wollschaf

    Wollschaf Threadersteller Registrierter Benutzer

    Im Board seit:
    09.06.04
    Zuletzt hier:
    2.08.04
    Beiträge:
    41
    Ort:
    Berlin
    Zustimmungen:
    0
    Kekse:
    10
    Erstellt: 29.06.04   #2
    also heute hab ich mich ganz darauf konzentriert und es hört sich nur im letzten chord anders an. ich glaube es ist einfach nur die reihenfolge anders.

    e-|-------------------------------------------------|
    B-|-------------------------------------------------| 4X
    G-|---------------------------10-10-10-8-8-8------|
    D-|-5-5-5--8-8-8--10-10-10--10-10-10-8-8-8------|
    A-|-5-5-5--8-8-8--10-10-10--8--8--8--6-6-6------|
    E-|-3-3-3--6-6-6--8--8--8------------------------|

    und ich glaube es sind 4 viertel und nicht 3 viertel was heissen würde es müsste so aussehen.

    e-|--------------------------------------------------------------|
    B-|--------------------------------------------------------------| 4X
    G-|----------------------------------10-10-10-10---8-8-8-8-----|
    D-|-5-5-5-5--8-8-8-8--10-10-10-10--10-10-10-10---8-8-8-8-----|
    A-|-5-5-5-5--8-8-8-8--10-10-10-10--8--8--8--8----6-6-6-6-----|
    E-|-3-3-3-3--6-6-6-6--8--8--8--8-------------------------------|

    naja hoffentlich finden sich hier bald einige reno fans die mir weiterhelfen können -.-
     
  3. Comrade

    Comrade Registrierter Benutzer

    Im Board seit:
    19.02.04
    Zuletzt hier:
    4.01.14
    Beiträge:
    1.894
    Ort:
    Ingolstadt
    Zustimmungen:
    2
    Kekse:
    276
    Erstellt: 30.06.04   #3
    Habs gestern mal wieder angeguckt....die Intro musik is relativ einfach...sind eben nur Powerchords.Ich nehme also mal an dass du auf dem richtigen weg bist.
    Mein Tipp:
    nimm dir ne Folge auf,hock dich mit Kalmpfe vor'n Fernseher und dann heissts ausprobieren....
     
  4. Wollschaf

    Wollschaf Threadersteller Registrierter Benutzer

    Im Board seit:
    09.06.04
    Zuletzt hier:
    2.08.04
    Beiträge:
    41
    Ort:
    Berlin
    Zustimmungen:
    0
    Kekse:
    10
    Erstellt: 30.06.04   #4
    darauf bin ich allein auch gekommen *g* aber leider hab ich keinen videorekorder und mein dvd player kommt erst in einigen wochen -.-

    wäre also euch sehr verbunden, wenn ihr mir helft ;)
     
  5. Comrade

    Comrade Registrierter Benutzer

    Im Board seit:
    19.02.04
    Zuletzt hier:
    4.01.14
    Beiträge:
    1.894
    Ort:
    Ingolstadt
    Zustimmungen:
    2
    Kekse:
    276
    Erstellt: 01.07.04   #5
    Des kommt immer nur dienstags,oda?
     
  6. Joa

    Joa Registrierter Benutzer

    Im Board seit:
    20.06.04
    Zuletzt hier:
    3.06.14
    Beiträge:
    2.807
    Ort:
    Blankenheim
    Zustimmungen:
    8
    Kekse:
    5.940
    Erstellt: 01.07.04   #6
    Wie wärs, wenn Du das TV mit der Hifianlage verbindest (save on tape).
    Vieleicht gibts den Song auch im Internet. Gibt bestimmt ne Seite zu der Serie, wo ein Intro läuft (save on tape).

    Gruß, JO
     
  7. Wollschaf

    Wollschaf Threadersteller Registrierter Benutzer

    Im Board seit:
    09.06.04
    Zuletzt hier:
    2.08.04
    Beiträge:
    41
    Ort:
    Berlin
    Zustimmungen:
    0
    Kekse:
    10
    Erstellt: 02.07.04   #7
    ich hab keine musikanlage mehr..das ist jetzt alles in meinem pc drin..

    nein wie schon oben erwähnt gibts den song nirgends im internet! wenn ihr ihn findet fress ich nen besen :D
     
  8. Comrade

    Comrade Registrierter Benutzer

    Im Board seit:
    19.02.04
    Zuletzt hier:
    4.01.14
    Beiträge:
    1.894
    Ort:
    Ingolstadt
    Zustimmungen:
    2
    Kekse:
    276
    Erstellt: 02.07.04   #8
  9. Wollschaf

    Wollschaf Threadersteller Registrierter Benutzer

    Im Board seit:
    09.06.04
    Zuletzt hier:
    2.08.04
    Beiträge:
    41
    Ort:
    Berlin
    Zustimmungen:
    0
    Kekse:
    10
    Erstellt: 03.07.04   #9
    heyyy danke! endlich mal was vernünftiges ;) thx thx thx!! :eek:
     
  10. Wollschaf

    Wollschaf Threadersteller Registrierter Benutzer

    Im Board seit:
    09.06.04
    Zuletzt hier:
    2.08.04
    Beiträge:
    41
    Ort:
    Berlin
    Zustimmungen:
    0
    Kekse:
    10
    Erstellt: 03.07.04   #10
    ich hab jetzt einige episoden von reno auf meinem pc ;)
    die riffs sind korrekt! und sind in der reihenfolge!

    e-|------------------------------------------------|
    B-|------------------------------------------------| 4X
    G-|-----------------------------------8-8-8-8-----|
    D-|-5-5-5-5--8-8-8-8--10-10-10-10---8-8-8-8-----|
    A-|-5-5-5-5--8-8-8-8--10-10-10-10---6-6-6-6-----|
    E-|-3-3-3-3--6-6-6-6--8--8--8--8-----------------|
     
Die Seite wird geladen...

mapping