RHCP Live in Hyde Park - Throw away your television bass intro Tab

von dasBoerni, 25.02.08.

  1. dasBoerni

    dasBoerni Registrierter Benutzer

    Im Board seit:
    07.10.07
    Zuletzt hier:
    9.02.13
    Beiträge:
    10
    Ort:
    Rheinfelden
    Zustimmungen:
    0
    Kekse:
    25
    Erstellt: 25.02.08   #1
    Hallo
    Ich suche, wie oben schon steht, nach Tabs für das Intro von Throw away your television welches Flea "Live in Hyde Park" spielt. Finde leider keine gescheiten Tabs/Noten davon und selbst raushören kann ich nicht. Aus diesem Grund, wäre ich euch echt dankbar, wenn mir da irgendwie weiter helfen kann.

    Vielen Dank fürs erste
    Björn
     
  2. Ryknow

    Ryknow Registrierter Benutzer

    Im Board seit:
    18.01.06
    Zuletzt hier:
    18.08.15
    Beiträge:
    4.640
    Ort:
    Zuhause
    Zustimmungen:
    730
    Kekse:
    10.700
    Erstellt: 26.02.08   #2
    auf www.911tabs.com die...sind doch fast perfekt...

    ansonsten hier:

    INTRO TO THROW AWAY YOUR TELEVISION
    RED HOT CHILI PEPPERS
    BASS TAB
    LIVE AT HYDE PARK DISK 2


    ------------------0-2--5-5-2----2-0-------------------------------------------
    ----------------2-------------2-----2-------------------------------------
    -0-0-3-0-5--6-0-----------------------0-3-5-3-0------------------------------------
    ------------------------------------------------3-1--------------------------

    ---------------------11-9----11-9----11-9----11-9----9----9----------
    ---------------5-7-0------10------10------10------10---10---10---------
    -0-3-0-5/6-7-0--------------------------------------------------
    --------------------------------------------------------

    -2-2-0--------------------------
    ---------2-2-0-----------------
    -------3--------0-3-5-3-------
    ------------------------3-----

    --------------------------------
    --------------------------------
    0------0-0---0-3-0-5-3-0------------------
    --1-1--------------------3----------------

    --------------------------------
    --------------------------------
    0-------0--0-3-0-2/3-----------
    --1-1-3------------------------

    --------------------------------
    --------------------------------
    -0-------0--/7--5-3-------------------
    ---1-1-3----------------------------

    --------------0---2-0--------------
    ----------------2-----2-0-2---------
    -0--3--0--3-5---------------3---------
    --------------------------------

    ------/9-7-5---
    ---2----------
    --------------
    -------------

    -2-2-0------------------------------
    -------0-2-2-0---------------5-2----
    ---------------0-3-5-0-3-3-5-----3--
    ------------------------------------
     
  3. Bassistenschwein

    Bassistenschwein Helpful & Friendly User HFU

    Im Board seit:
    24.04.05
    Zuletzt hier:
    15.10.16
    Beiträge:
    1.555
    Zustimmungen:
    115
    Kekse:
    5.242
    Erstellt: 27.02.08   #3
    Naja die Töne mögen stimmen, aber zu perfekten Tabs gehört für mich auf jeden Fall, dass die Notenwerte drüberstehen.
    Ein Grund weshalb ich fast nur nach Noten spiele...
     
  4. Muradhin

    Muradhin Registrierter Benutzer

    Im Board seit:
    18.04.07
    Zuletzt hier:
    2.05.14
    Beiträge:
    597
    Zustimmungen:
    1
    Kekse:
    699
    Erstellt: 27.02.08   #4
    Notenwerte kann man sich, besonders wenn der Bass solo spielt, mit etwas Geduld ganz gut raushören, so wild ist das nicht, natürlich ist es besser wenn Notenwerte dabei stehen, keine Frage.
     
Die Seite wird geladen...

mapping