RHCP-otherside

  • Ersteller CryingRoses
  • Erstellt am
C
CryingRoses
Registrierter Benutzer
Zuletzt hier
05.09.05
Registriert
18.11.04
Beiträge
9
Kekse
0
Ort
Oldisleben
guten Tach

spielt ihr das Intro Otherside von Red Hot Chilli Peppers auch so:
----------------------------------------------------------------
----------------------------------------------------------------
----------------------------------------------------------------
--------------7--7--9--7----------------------------------------
-----7--7--7--------------10--7--------5--5--5-----------------
----------------------------------------------------------------
oder so:
e---------------------------------------------------------------
B---------------------------------------------------------------
G-----------------4---------------------------------------------
D-----------7--7----7-5-----------------------------------------
A--7--7--7--------------7------5--5--5-------------------------
E---------------------------------------------------------------
oder ganz anders?
 
Eigenschaft
 
K
Korittke
Registrierter Benutzer
Zuletzt hier
29.07.09
Registriert
21.11.04
Beiträge
527
Kekse
156
Ich würd die 9 vom ersten statt der 4 spielen, und die 5 vom zweiten statt der 10. Aber am besten man spielt einfach das was einfacher ist, ist ja nicht für alle gleich
 
C
CryingRoses
Registrierter Benutzer
Zuletzt hier
05.09.05
Registriert
18.11.04
Beiträge
9
Kekse
0
Ort
Oldisleben
ja einfacher ist das erste auf jeden fall, aber es klang beim spielen etwas komisch, nicht wie das original, deswegen frag ich ja, weils ja immer mehrere angeblich richtige Versionen gibt

ok danke schonmal
 
D
Der Wemmser
Registrierter Benutzer
Zuletzt hier
16.02.16
Registriert
30.06.04
Beiträge
188
Kekse
0
Ort
Ahlde
ich spiel das aufer D-saite.Also vom 2ten Bund aus ,aber dnek das tut nich viel zuur sache :great:
 
Dark Ride
Dark Ride
Registrierter Benutzer
Zuletzt hier
04.12.09
Registriert
26.02.04
Beiträge
527
Kekse
85
RHCP - Ortherside

Gitarre 1

E||---------------------|-----------------------|-------------------|
B||---------------------|-----------------------|-------------------|
G||---------------------|--2------2----4--2--0--|-------------------|
D||--2------2------2----|-----------------------|--2----------------|
A||--0------0------0----|-----------------------|--3----------------|
E||---------------------|--1------1----1--1--1--|-------------------|



---------------------||----------------------|-----------------------|
---------------------||----------------------|-----------------------|
--0------0------0----||*---------------------|--2------2----4--2--0--|
--0------0------0----||*--2------2------2----|-----------------------|
---------------------||---0------0------0----|-----------------------|
---------------------||----------------------|--1------1----1--1--1--|



---------------------|----------------------||---------------------|
---------------------|----------------------||---------------------|
---------------------|--0------0------0----*||---------------------|
--2------2------2----|--0------0------0----*||--2------2------2----|
--3------3------3----|----------------------||--0------0------0----|
---------------------|----------------------||---------------------|



---------------------|---------------------|---------------------|
---------------------|--5------5------5----|---------------------|
--2------2------2----|--5------5------5----|--4------4------5----|
---------------------|---------------------|--5------5------5----|
---------------------|---------------------|---------------------|
--1------1------1----|---------------------|---------------------|


2x G
|-------------------------|-----------3-------------||--3----------------|
|------------1------------|--------0-------0--------||--3----------------|
|*--------2-------2-------|-----0-------------0----*||--0----------------|
|*-----2-------------2----|------------------------*||--0----------------|
|---0---------------------|-------------------------||--2----------------|
|-------------------------|--0----------------------||--3----------------|


Am
--0----------------|------------------||-------------------------|
--1----------------|------------------||------------1------------|
--2----------------|------------------||*--------2-------2-------|
--2----------------|------------------||*-----2-------------2----|
--0----------------|------------------||---0---------------------|
-------------------|------------------||-------------------------|


2x G Am
-----------3-------------||---3----------------|--0-----------------||
--------0-------0--------||---3----------------|--1-----------------||
-----0-------------0----*||*--0----------------|--2----------------*||
------------------------*||*--0----------------|--2----------------*||
-------------------------||---2----------------|--0-----------------||
--0----------------------||---3----------------|--------------------||


G Am
--3----------------|------------------|--0----------------|------------------|
--3----------------|------------------|--1----------------|------------------|
--0----------------|------------------|--2----------------|------------------|
--0----------------|------------------|--2----------------|------------------|
--2----------------|------------------|--0----------------|------------------|
--3----------------|------------------|-------------------|------------------|



|----------------------|-----------------------|---------------------|
|----------------------|-----------------------|---------------------|
|*---------------------|--2------2----4--2--0--|---------------------|
|*--2------2------2----|-----------------------|--2------2------2----|
|---0------0------0----|-----------------------|--3------3------3----|
|----------------------|--1------1----1--1--1--|---------------------|



----------------------||---------------------|---------------------|
----------------------||---------------------|---------------------|
--0------0------0----*||---------------------|--2------2------2----|
--0------0------0----*||--2------2------2----|---------------------|
----------------------||--0------0------0----|---------------------|
----------------------||---------------------|--1------1------1----|



---------------------|---------------------||-------------------------|
--5------5------5----|---------------------||------------1------------|
--5------5------5----|--4------4------5----||*--------2-------2-------|
---------------------|--5------5------5----||*-----2-------------2----|
---------------------|---------------------||---0---------------------|
---------------------|---------------------||-------------------------|


2x G Am
-----------3-------------||--3----------------|--0----------------|
--------0-------0--------||--3----------------|--1----------------|
-----0-------------0----*||--0----------------|--2----------------|
------------------------*||--0----------------|--2----------------|
-------------------------||--2----------------|--0----------------|
--0----------------------||--3----------------|-------------------|


2x
------------------||-------------------------|-----------3-------------||
------------------||------------1------------|--------0-------0--------||
------------------||*--------2-------2-------|-----0-------------0----*||
------------------||*-----2-------------2----|------------------------*||
------------------||---0---------------------|-------------------------||
------------------||-------------------------|--0----------------------||


G Am G
---3----------------|--0-----------------||--3----------------|
---3----------------|--1-----------------||--3----------------|
*--0----------------|--2----------------*||--0----------------|
*--0----------------|--2----------------*||--0----------------|
---2----------------|--0-----------------||--2----------------|
---3----------------|--------------------||--3----------------|


Am
------------------|--0----------------|------------------|
------------------|--1----------------|------------------|
------------------|--2----------------|------------------|
------------------|--2----------------|------------------|
------------------|--0----------------|------------------|
------------------|-------------------|------------------|



|----------------------|-----------------------|---------------------|
|----------------------|-----------------------|---------------------|
|*---------------------|--2------2----4--2--0--|---------------------|
|*--2------2------2----|-----------------------|--2------2------2----|
|---0------0------0----|-----------------------|--3------3------3----|
|----------------------|--1------1----1--1--1--|---------------------|



----------------------||---------------------|---------------------|
----------------------||---------------------|---------------------|
--0------0------0----*||---------------------|--2------2------2----|
--0------0------0----*||--2------2------2----|---------------------|
----------------------||--0------0------0----|---------------------|
----------------------||---------------------|--1------1------1----|



---------------------|---------------------||-------0-------0-------|
--5------5------5----|---------------------||-------12------12------|
--5------5------5----|--4------4------5----||*----------------------|
---------------------|--5------5------5----||*----------------------|
---------------------|---------------------||-----------------------|
---------------------|---------------------||-----------------------|


3x
--0-----------------|------12------12------|--12-----------------||
--12----------------|------0-------0-------|--0------------------||
--------------------|----------------------|--------------------*||
--------------------|----------------------|--------------------*||
--------------------|----------------------|---------------------||
--------------------|----------------------|---------------------||



--5------5------5----|--12------12------12----|--15--12--12--12----12--12--12--|
---------------------|------------------------|--------------------------------|
---------------------|------------------------|--------------------------------|
---------------------|------------------------|--------------------------------|
---------------------|------------------------|--------------------------------|
---------------------|------------------------|--------------------------------|



--15--12--12--15--12--12--15----||------------0------------|
--------------------------------||---------1-------1-------|
--------------------------------||*-----2-------------2----|
--------------------------------||*------------------------|
--------------------------------||---0---------------------|
--------------------------------||-------------------------|


3x
-----------1------------|-----------0------------|-----------3-------------||
--------1-------1-------|--------1-------1-------|--------3-------3--------||
-----2-------------2----|-----0-------------0----|-----0-------------0----*||
------------------------|------------------------|------------------------*||
------------------------|--3---------------------|-------------------------||
--1---------------------|------------------------|--3----------------------||


Am
--0----------------||
--1----------------||
--2----------------||
--2----------------||
--0----------------||
-------------------||
 
!nsane
!nsane
Gesperrter Benutzer
Zuletzt hier
03.04.12
Registriert
10.09.03
Beiträge
233
Kekse
69
Ort
Heilbronn
da is aber das was eigentlich der bass spielt mitgetabbt
 
Dark Ride
Dark Ride
Registrierter Benutzer
Zuletzt hier
04.12.09
Registriert
26.02.04
Beiträge
527
Kekse
85
Gitarre 2

Am F C C C
E||--0----------------|--1----------------|--0------0------0----|
B||--1----------------|--1----------------|--1------1------1----|
G||--2----------------|--2----------------|--0------0------0----|
D||--2----------------|--3----------------|--2------2------2----|
A||--0----------------|--3----------------|--3------3------3----|
E||-------------------|--1----------------|---------------------|


G Am Am Am F F F
--3----------------||---0------0------0----|--1------1------1----|
--3----------------||---1------1------1----|--1------1------1----|
--0----------------||*--2------2------2----|--2------2------2----|
--0----------------||*--2------2------2----|--3------3------3----|
--2----------------||---0------0------0----|--3------3------3----|
--3----------------||----------------------|--1------1------1----|


C C C G G G Am Am Am
--0------0------0----|--3------3------3-----||--0------0------0----|
--1------1------1----|--3------3------3-----||--1------1------1----|
--0------0------0----|--0------0------0----*||--2------2------2----|
--2------2------2----|--0------0------0----*||--2------2------2----|
--3------3------3----|--2------2------2-----||--0------0------0----|
---------------------|--3------3------3-----||---------------------|


F F F C C C G G G
--1------1------1----|--0------0------0----|--3------3------3----|
--1------1------1----|--1------1------1----|--3------3------3----|
--2------2------2----|--0------0------0----|--0------0------0----|
--3------3------3----|--2------2------2----|--0------0------0----|
--3------3------3----|--3------3------3----|--2------2------2----|
--1------1------1----|---------------------|--3------3------3----|


Am Am Am 2x G G G
|---0------0------0----|--3------3------3-----||--3------3------3----|
|---1------1------1----|--0------0------0-----||--3------3------3----|
|*--2------2------2----|--0------0------0----*||--0------0------0----|
|*--2------2------2----|--2------2------2----*||--0------0------0----|
|---0------0------0----|--2------2------2-----||--2------2------2----|
|----------------------|--0------0------0-----||--3------3------3----|


Am Am Am Am Am Am Am Am Am
--0------0------0----|--0------0------0----||---0------0------0----|
--1------1------1----|--1------1------1----||---1------1------1----|
--2------2------2----|--2------2------2----||*--2------2------2----|
--2------2------2----|--2------2------2----||*--2------2------2----|
--0------0------0----|--0------0------0----||---0------0------0----|
---------------------|---------------------||----------------------|


2x G G G Am Am Am
--3------3------3-----||---3------3------3----|--0------0------0-----||
--0------0------0-----||---3------3------3----|--1------1------1-----||
--0------0------0----*||*--0------0------0----|--2------2------2----*||
--2------2------2----*||*--0------0------0----|--2------2------2----*||
--2------2------2-----||---2------2------2----|--0------0------0-----||
--0------0------0-----||---3------3------3----|----------------------||


G G G G G G Am Am Am
--3------3------3----|--3------3------3----|--0------0------0----|
--3------3------3----|--3------3------3----|--1------1------1----|
--0------0------0----|--0------0------0----|--2------2------2----|
--0------0------0----|--0------0------0----|--2------2------2----|
--2------2------2----|--2------2------2----|--0------0------0----|
--3------3------3----|--3------3------3----|---------------------|


Am Am Am Am Am Am F F F
--0------0------0----||---0------0------0----|--1------1------1----|
--1------1------1----||---1------1------1----|--1------1------1----|
--2------2------2----||*--2------2------2----|--2------2------2----|
--2------2------2----||*--2------2------2----|--3------3------3----|
--0------0------0----||---0------0------0----|--3------3------3----|
---------------------||----------------------|--1------1------1----|


C C C G G G Am Am Am
--0------0------0----|--3------3------3-----||--0------0------0----|
--1------1------1----|--3------3------3-----||--1------1------1----|
--0------0------0----|--0------0------0----*||--2------2------2----|
--2------2------2----|--0------0------0----*||--2------2------2----|
--3------3------3----|--2------2------2-----||--0------0------0----|
---------------------|--3------3------3-----||---------------------|


F F F C C C G G G
--1------1------1----|--0------0------0----|--3------3------3----|
--1------1------1----|--1------1------1----|--3------3------3----|
--2------2------2----|--0------0------0----|--0------0------0----|
--3------3------3----|--2------2------2----|--0------0------0----|
--3------3------3----|--3------3------3----|--2------2------2----|
--1------1------1----|---------------------|--3------3------3----|


Am Am Am 2x G G G
|---0------0------0----|--3------3------3-----||--3------3------3----|
|---1------1------1----|--0------0------0-----||--3------3------3----|
|*--2------2------2----|--0------0------0----*||--0------0------0----|
|*--2------2------2----|--2------2------2----*||--0------0------0----|
|---0------0------0----|--2------2------2-----||--2------2------2----|
|----------------------|--0------0------0-----||--3------3------3----|


Am Am Am Am Am Am Am Am Am
--0------0------0----|--0------0------0----||---0------0------0----|
--1------1------1----|--1------1------1----||---1------1------1----|
--2------2------2----|--2------2------2----||*--2------2------2----|
--2------2------2----|--2------2------2----||*--2------2------2----|
--0------0------0----|--0------0------0----||---0------0------0----|
---------------------|---------------------||----------------------|


2x G G G Am Am Am
--3------3------3-----||---3------3------3----|--0------0------0-----||
--0------0------0-----||---3------3------3----|--1------1------1-----||
--0------0------0----*||*--0------0------0----|--2------2------2----*||
--2------2------2----*||*--0------0------0----|--2------2------2----*||
--2------2------2-----||---2------2------2----|--0------0------0-----||
--0------0------0-----||---3------3------3----|----------------------||


G G G G G G Am Am Am
--3------3------3----|--3------3------3----|--0------0------0----|
--3------3------3----|--3------3------0----|--1------1------1----|
--0------0------0----|--0------0------0----|--2------2------2----|
--0------0------0----|--0------0------0----|--2------2------2----|
--2------2------2----|--2------2------2----|--0------0------0----|
--3------3------3----|--3------3------3----|---------------------|


Am Am Am
--0------0------0----||------------0------------|-----------1------------|
--1------1------1----||---------1-------1-------|--------1-------1-------|
--2------2------2----||*-----2-------------2----|-----2-------------2----|
--2------2------2----||*------------------------|------------------------|
--0------0------0----||---0---------------------|------------------------|
---------------------||-------------------------|--1---------------------|



-----------0------------|-----------3-------------||-----------0------------|
--------1-------1-------|--------3-------3--------||--------1-------1-------|
-----0-------------0----|-----0-------------0----*||-----2-------------2----|
------------------------|------------------------*||------------------------|
--3---------------------|-------------------------||--0---------------------|
------------------------|--3----------------------||------------------------|



-----------1------------|-----------0------------|-----------3------------|
--------1-------1-------|--------1-------1-------|--------3-------3-------|
-----2-------------2----|-----0-------------0----|-----0-------------0----|
------------------------|------------------------|------------------------|
------------------------|--3---------------------|------------------------|
--1---------------------|------------------------|--3---------------------|


Em Em Em C7M C7M
|--------0------0------|--0----------------|-------0------0------|
|--------0------0------|--0----------------|-------0------0------|
|*-------0------0------|--0----------------|-------0------0------|
|*-------2------2------|--2----------------|-------2------2------|
|--------2------2------|--2----------------|--3----3------3------|
|---0----0------0------|--0----------------|---------------------|


C7M 3x Am Am Am F F F
--0-----------------||--0------0------0----|--1------1------1----|
--0-----------------||--1------1------1----|--1------1------1----|
--0----------------*||--2------2------2----|--2------2------2----|
--2----------------*||--2------2------2----|--3------3------3----|
--3-----------------||--0------0------0----|--3------3------3----|
--------------------||---------------------|--1------1------1----|


C C C G G G Am Am Am
--0------0------0----|--3------3------3----||---0------0------0----|
--1------1------1----|--3------3------3----||---1------1------1----|
--0------0------0----|--0------0------0----||*--2------2------2----|
--2------2------2----|--0------0------0----||*--2------2------2----|
--3------3------3----|--2------2------2----||---0------0------0----|
---------------------|--3------3------3----||----------------------|


F F F C C C G G G 3x
--1------1------1----|--0------0------0----|--3------3------3-----||
--1------1------1----|--1------1------1----|--3------3------3-----||
--2------2------2----|--0------0------0----|--0------0------0----*||
--3------3------3----|--2------2------2----|--0------0------0----*||
--3------3------3----|--3------3------3----|--2------2------2-----||
--1------1------1----|---------------------|--3------3------3-----||


Am
--0----------------||
--1----------------||
--2----------------||
--2----------------||
--0----------------||
-------------------||

Die version für 2 akustik gitarren.kling gut und ist mal eine nette abwechslung wer sich am original schon satt gehört hatt. :great:
 

Ähnliche Themen


Neue Themen

Unser weiteres Online-Angebot:
Bassic.de · Deejayforum.de · Sequencer.de · Clavio.de · Guitarworld.de · Recording.de

Musiker-Board Logo
Oben