RHCP-otherside

von CryingRoses, 11.12.04.

  1. CryingRoses

    CryingRoses Registrierter Benutzer

    Im Board seit:
    18.11.04
    Zuletzt hier:
    5.09.05
    Beiträge:
    9
    Ort:
    Oldisleben
    Zustimmungen:
    0
    Kekse:
    10
    Erstellt: 11.12.04   #1
    guten Tach

    spielt ihr das Intro Otherside von Red Hot Chilli Peppers auch so:
    ----------------------------------------------------------------
    ----------------------------------------------------------------
    ----------------------------------------------------------------
    --------------7--7--9--7----------------------------------------
    -----7--7--7--------------10--7--------5--5--5-----------------
    ----------------------------------------------------------------
    oder so:
    e---------------------------------------------------------------
    B---------------------------------------------------------------
    G-----------------4---------------------------------------------
    D-----------7--7----7-5-----------------------------------------
    A--7--7--7--------------7------5--5--5-------------------------
    E---------------------------------------------------------------
    oder ganz anders?
     
  2. Korittke

    Korittke Registrierter Benutzer

    Im Board seit:
    21.11.04
    Zuletzt hier:
    29.07.09
    Beiträge:
    538
    Zustimmungen:
    1
    Kekse:
    166
    Erstellt: 11.12.04   #2
    Ich würd die 9 vom ersten statt der 4 spielen, und die 5 vom zweiten statt der 10. Aber am besten man spielt einfach das was einfacher ist, ist ja nicht für alle gleich
     
  3. CryingRoses

    CryingRoses Threadersteller Registrierter Benutzer

    Im Board seit:
    18.11.04
    Zuletzt hier:
    5.09.05
    Beiträge:
    9
    Ort:
    Oldisleben
    Zustimmungen:
    0
    Kekse:
    10
    Erstellt: 11.12.04   #3
    ja einfacher ist das erste auf jeden fall, aber es klang beim spielen etwas komisch, nicht wie das original, deswegen frag ich ja, weils ja immer mehrere angeblich richtige Versionen gibt

    ok danke schonmal
     
  4. Der Wemmser

    Der Wemmser Registrierter Benutzer

    Im Board seit:
    30.06.04
    Zuletzt hier:
    16.02.16
    Beiträge:
    192
    Ort:
    Ahlde
    Zustimmungen:
    0
    Kekse:
    10
    Erstellt: 11.12.04   #4
    ich spiel das aufer D-saite.Also vom 2ten Bund aus ,aber dnek das tut nich viel zuur sache :great:
     
  5. Dark Ride

    Dark Ride Registrierter Benutzer

    Im Board seit:
    26.02.04
    Zuletzt hier:
    4.12.09
    Beiträge:
    530
    Zustimmungen:
    0
    Kekse:
    95
    Erstellt: 12.12.04   #5
    RHCP - Ortherside

     
  6. !nsane

    !nsane Gesperrter Benutzer

    Im Board seit:
    10.09.03
    Zuletzt hier:
    3.04.12
    Beiträge:
    233
    Ort:
    Heilbronn
    Zustimmungen:
    0
    Kekse:
    79
    Erstellt: 12.12.04   #6
    da is aber das was eigentlich der bass spielt mitgetabbt
     
  7. Dark Ride

    Dark Ride Registrierter Benutzer

    Im Board seit:
    26.02.04
    Zuletzt hier:
    4.12.09
    Beiträge:
    530
    Zustimmungen:
    0
    Kekse:
    95
    Erstellt: 12.12.04   #7
    Die version für 2 akustik gitarren.kling gut und ist mal eine nette abwechslung wer sich am original schon satt gehört hatt. :great:
     
Die Seite wird geladen...

mapping