moore - spanish guitar

von p0wl, 26.05.07.

  1. p0wl

    p0wl Registrierter Benutzer

    Im Board seit:
    20.10.06
    Beiträge:
    508
    Ort:
    Stuttgart/Tübingen
    Zustimmungen:
    0
    Kekse:
    346
    Erstellt: 26.05.07   #1
    hallo zusammen,
    ich hab ein kleines problem bei oben genanntem stück:

    e:|-----------------|--------------------|
    B:|-----------------|--------------------|
    G:|-----------------|--------------------|
    D:|-----------------|---------9-10-7\5/7-|
    A:|--2/7---/7-8-10--|--/7-9-10-----------|
    E:|-----------------|--------------------|

    e:|-------------|-------------|
    B:|-------------|-------------|
    G:|-------------|-------------|
    D:|--7-9-5\4/5--|--5-7-4\2/4--|
    A:|-------------|-------------|
    E:|-------------|-------------|

    e:|-----------------|--------------------|
    B:|-----------------|--------------------|
    G:|-----------------|--------------------|
    D:|-----------------|---------9-10-7\5/7-|
    A:|--2/7---/7-8-10--|--/7-9-10-----------|
    E:|-----------------|--------------------|

    e:|-------------|--------------| Intro Ends
    B:|-------------|--------------|
    G:|-------------|--------------| Try to play
    D:|--7-9-5\4/5--|--4-2---------| the intro with
    A:|-------------|------2-------| as much vibratos
    E:|-------------|--------3--0--| as possible for coolest result


    Direkt am Anfang komme ich schon nicht klar. Also 2/7 ist klar, aber wie dann weiter. Also was meint der / vor der zweiten 7, da bin ich doch schon im siebten Bund. Alles in allem, klingts nicht so, wie es sollte. Könnte mir jemand helfen und mir das bisschen erläutern?
     
  2. Flame-Blade

    Flame-Blade Registrierter Benutzer

    Im Board seit:
    21.09.06
    Zuletzt hier:
    7.12.16
    Beiträge:
    1.547
    Ort:
    Hannover
    Zustimmungen:
    116
    Kekse:
    4.933
    Erstellt: 03.06.07   #2
    Das mag daran liegen das das Tab falsch ist.


    Ich spiele es so:

    --------------2/7----7-9-10------
    --------------------7----------------------
     
  3. Neuling

    Neuling Registrierter Benutzer

    Im Board seit:
    16.04.04
    Zuletzt hier:
    3.12.16
    Beiträge:
    1.516
    Ort:
    uʍoʇuʍopǝpısdn
    Zustimmungen:
    200
    Kekse:
    2.285
    Erstellt: 03.06.07   #3
    Ich kenne das Stück nicht, aber der '/' vor der zweiten 7 bedeutet, dass du in den 7. Bund reinslidest. Am besten vom 6. Bund aus. Probiers' einfach mal aus!
     
Die Seite wird geladen...

mapping